999
dxfrw 0.6.3
  0
SECTION
  2
HEADER
  9
$ACADVER
  1
AC1021
  9
$DWGCODEPAGE
  3
ANSI_1252
  9
$INSBASE
 10
0
 20
0
 30
0
  9
$EXTMIN
 10
305.8361561944917
 20
277.1431388349583
 30
0
  9
$EXTMAX
 10
784.8839250833806
 20
297.1431388349583
 30
0
  9
$LIMMIN
 10
0
 20
0
  9
$LIMMAX
 10
841
 20
594
  9
$ORTHOMODE
 70
    0
  9
$REGENMODE
 70
    1
  9
$FILLMODE
 70
    1
  9
$QTEXTMODE
 70
    0
  9
$MIRRTEXT
 70
    1
  9
$LTSCALE
 40
1
  9
$ATTMODE
 70
    1
  9
$TEXTSIZE
 40
2.5
  9
$TRACEWID
 40
1
  9
$TEXTSTYLE
  7
STANDARD
  9
$CLAYER
  8
0
  9
$CELTYPE
  6
BYLAYER
  9
$CECOLOR
 62
  256
  9
$CELTSCALE
 40
1
  9
$DISPSILH
 70
    0
  9
$DIMSCALE
 40
1
  9
$DIMASZ
 40
2.5
  9
$DIMEXO
 40
0.625
  9
$DIMDLI
 40
3.75
  9
$DIMRND
 40
0
  9
$DIMDLE
 40
0
  9
$DIMEXE
 40
1.25
  9
$DIMTP
 40
0
  9
$DIMTM
 40
0
  9
$DIMTXT
 40
2.5
  9
$DIMCEN
 40
2.5
  9
$DIMTSZ
 40
0
  9
$DIMTOL
 70
    0
  9
$DIMLIM
 70
    0
  9
$DIMTIH
 70
    0
  9
$DIMTOH
 70
    0
  9
$DIMSE1
 70
    0
  9
$DIMSE2
 70
    0
  9
$DIMTAD
 70
    1
  9
$DIMZIN
 70
    8
  9
$DIMBLK
  1

  9
$DIMASO
 70
    1
  9
$DIMSHO
 70
    1
  9
$DIMPOST
  1

  9
$DIMAPOST
  1

  9
$DIMALT
 70
    0
  9
$DIMALTD
 70
    3
  9
$DIMALTF
 40
0.0393700787
  9
$DIMLFAC
 40
1
  9
$DIMTOFL
 70
    1
  9
$DIMTVP
 40
0
  9
$DIMTIX
 70
    0
  9
$DIMSOXD
 70
    0
  9
$DIMSAH
 70
    0
  9
$DIMBLK1
  1

  9
$DIMBLK2
  1

  9
$DIMSTYLE
  2
ISO-25
  9
$DIMCLRD
 70
    0
  9
$DIMCLRE
 70
    0
  9
$DIMCLRT
 70
    0
  9
$DIMTFAC
 40
1
  9
$DIMGAP
 40
0.625
  9
$DIMJUST
 70
    0
  9
$DIMSD1
 70
    0
  9
$DIMSD2
 70
    0
  9
$DIMTOLJ
 70
    0
  9
$DIMTZIN
 70
    8
  9
$DIMALTZ
 70
    0
  9
$DIMALTTZ
 70
    0
  9
$DIMUPT
 70
    0
  9
$DIMDEC
 70
    2
  9
$DIMTDEC
 70
    2
  9
$DIMALTU
 70
    2
  9
$DIMALTTD
 70
    3
  9
$DIMTXSTY
  7
STANDARD
  9
$DIMAUNIT
 70
    0
  9
$DIMADEC
 70
    0
  9
$DIMALTRND
 40
0
  9
$DIMAZIN
 70
    0
  9
$DIMDSEP
 70
   44
  9
$DIMATFIT
 70
    3
  9
$DIMFRAC
 70
    0
  9
$DIMLDRBLK
  1
STANDARD
  9
$DIMLUNIT
 70
    2
  9
$DIMLWD
 70
   -2
  9
$DIMLWE
 70
   -2
  9
$DIMTMOVE
 70
    0
  9
$DIMFXL
 40
1
  9
$DIMFXLON
 70
    0
  9
$DIMJOGANG
 40
0.7854
  9
$DIMTFILL
 70
    0
  9
$DIMTFILLCLR
 70
    0
  9
$DIMARCSYM
 70
    0
  9
$DIMLTYPE
  6

  9
$DIMLTEX1
  6

  9
$DIMLTEX2
  6

  9
$LUNITS
 70
    2
  9
$LUPREC
 70
    4
  9
$SKETCHINC
 40
1
  9
$FILLETRAD
 40
10
  9
$AUNITS
 70
    0
  9
$AUPREC
 70
    0
  9
$MENU
  1
.
  9
$ELEVATION
 40
0
  9
$PELEVATION
 40
0
  9
$THICKNESS
 40
0
  9
$LIMCHECK
 70
    0
  9
$CHAMFERA
 40
10
  9
$CHAMFERB
 40
10
  9
$CHAMFERC
 40
20
  9
$CHAMFERD
 40
0
  9
$SKPOLY
 70
    0
  9
$USRTIMER
 70
    1
  9
$ANGBASE
 50
0
  9
$ANGDIR
 70
    0
  9
$PDMODE
 70
    0
  9
$PDSIZE
 40
0
  9
$PLINEWID
 40
0
  9
$SPLFRAME
 70
    0
  9
$SPLINETYPE
 70
    6
  9
$SPLINESEGS
 70
    8
  9
$HANDSEED
  5
20000
  9
$SURFTAB1
 70
    6
  9
$SURFTAB2
 70
    6
  9
$SURFTYPE
 70
    6
  9
$SURFU
 70
    6
  9
$SURFV
 70
    6
  9
$UCSBASE
  2

  9
$UCSNAME
  2

  9
$UCSORG
 10
0
 20
0
 30
0
  9
$UCSXDIR
 10
1
 20
0
 30
0
  9
$UCSYDIR
 10
0
 20
1
 30
0
  9
$UCSORTHOREF
  2

  9
$UCSORTHOVIEW
 70
    0
  9
$UCSORGTOP
 10
0
 20
0
 30
0
  9
$UCSORGBOTTOM
 10
0
 20
0
 30
0
  9
$UCSORGLEFT
 10
0
 20
0
 30
0
  9
$UCSORGRIGHT
 10
0
 20
0
 30
0
  9
$UCSORGFRONT
 10
0
 20
0
 30
0
  9
$UCSORGBACK
 10
0
 20
0
 30
0
  9
$PUCSBASE
  2

  9
$PUCSNAME
  2

  9
$PUCSORG
 10
0
 20
0
 30
0
  9
$PUCSXDIR
 10
1
 20
0
 30
0
  9
$PUCSYDIR
 10
0
 20
1
 30
0
  9
$PUCSORTHOREF
  2

  9
$PUCSORTHOVIEW
 70
    0
  9
$PUCSORGTOP
 10
0
 20
0
 30
0
  9
$PUCSORGBOTTOM
 10
0
 20
0
 30
0
  9
$PUCSORGLEFT
 10
0
 20
0
 30
0
  9
$PUCSORGRIGHT
 10
0
 20
0
 30
0
  9
$PUCSORGFRONT
 10
0
 20
0
 30
0
  9
$PUCSORGBACK
 10
0
 20
0
 30
0
  9
$USERI1
 70
    0
  9
$USERI2
 70
    0
  9
$USERI3
 70
    0
  9
$USERI4
 70
    0
  9
$USERI5
 70
    0
  9
$USERR1
 40
0
  9
$USERR2
 40
0
  9
$USERR3
 40
0
  9
$USERR4
 40
0
  9
$USERR5
 40
0
  9
$WORLDVIEW
 70
    1
  9
$SHADEDGE
 70
    3
  9
$SHADEDIF
 70
   70
  9
$TILEMODE
 70
    1
  9
$MAXACTVP
 70
   64
  9
$PINSBASE
 10
0
 20
0
 30
0
  9
$PLIMCHECK
 70
    0
  9
$PEXTMIN
 10
0
 20
0
 30
0
  9
$PEXTMAX
 10
841
 20
594
 30
0
  9
$GRIDMODE
 70
    0
  9
$SNAPSTYLE
 70
    0
  9
$PLIMMIN
 10
0
 20
0
  9
$PLIMMAX
 10
841
 20
594
  9
$UNITMODE
 70
    0
  9
$VISRETAIN
 70
    1
  9
$PLINEGEN
 70
    0
  9
$PSLTSCALE
 70
    1
  9
$TREEDEPTH
 70
 3020
  9
$CMLSTYLE
  2
STANDARD
  9
$CMLJUST
 70
    0
  9
$CMLSCALE
 40
20
  9
$PROXYGRAPHICS
 70
    1
  9
$MEASUREMENT
 70
    1
  9
$CELWEIGHT
370
   -1
  9
$ENDCAPS
280
    0
  9
$JOINSTYLE
280
    0
  9
$LWDISPLAY
290
    0
  9
$INSUNITS
 70
    4
  9
$HYPERLINKBASE
  1

  9
$STYLESHEET
  1

  9
$XEDIT
290
    1
  9
$CEPSNTYPE
380
    0
  9
$PSTYLEMODE
290
    1
  9
$EXTNAMES
290
    1
  9
$PSVPSCALE
 40
1
  9
$OLESTARTUP
290
    0
  9
$SORTENTS
280
  127
  9
$INDEXCTL
280
    0
  9
$HIDETEXT
280
    1
  9
$XCLIPFRAME
290
    0
  9
$HALOGAP
280
    0
  9
$OBSCOLOR
 70
  257
  9
$OBSLTYPE
280
    0
  9
$INTERSECTIONDISPLAY
280
    0
  9
$INTERSECTIONCOLOR
 70
  257
  9
$DIMASSOC
280
    1
  9
$PROJECTNAME
  1

  9
$CAMERADISPLAY
290
    0
  9
$LENSLENGTH
 40
50
  9
$CAMERAHEIGHT
 40
0
  9
$STEPSPERSEC
 40
2
  9
$STEPSIZE
 40
50
  9
$3DDWFPREC
 40
2
  9
$PSOLWIDTH
 40
5
  9
$PSOLHEIGHT
 40
80
  9
$LOFTANG1
 40
1.570796326794897
  9
$LOFTANG2
 40
1.570796326794897
  9
$LOFTMAG1
 40
0
  9
$LOFTMAG2
 40
0
  9
$LOFTPARAM
 70
    7
  9
$LOFTNORMALS
280
    1
  9
$LATITUDE
 40
1
  9
$LONGITUDE
 40
1
  9
$NORTHDIRECTION
 40
0
  9
$TIMEZONE
 70
-8000
  9
$LIGHTGLYPHDISPLAY
280
    1
  9
$TILEMODELIGHTSYNCH
280
    1
  9
$SOLIDHIST
280
    1
  9
$SHOWHIST
280
    1
  9
$DWFFRAME
280
    2
  9
$DGNFRAME
280
    0
  9
$REALWORLDSCALE
290
    1
  9
$INTERFERECOLOR
 62
    1
  9
$CSHADOW
280
    0
  9
$SHADOWPLANELOCATION
 40
0
  0
ENDSEC
  0
SECTION
  2
CLASSES
  0
ENDSEC
  0
SECTION
  2
TABLES
  0
TABLE
  2
VPORT
  5
8
330
0
100
AcDbSymbolTable
 70
    1
  0
VPORT
  5
31
330
2
100
AcDbSymbolTableRecord
100
AcDbViewportTableRecord
  2
*ACTIVE
 70
    0
 10
0
 20
0
 11
1
 21
1
 12
474.7206249749167
 22
290.8793287730639
 13
0
 23
0
 14
10
 24
10
 15
10
 25
10
 16
0
 26
0
 36
1
 17
0
 27
0
 37
0
 40
590.0992834607677
 41
1.886925795053004
 42
50
 43
0
 44
0
 50
0
 51
0
 71
    0
 72
  100
 73
    1
 74
    3
 75
    0
 76
    0
 77
    0
 78
    0
281
    0
 65
    1
110
0
120
0
130
0
111
1
121
0
131
0
112
0
122
1
132
0
 79
    0
146
0
348
10020
 60
    7
 61
    5
292
1
282
    1
141
0
142
0
 63
  250
421
3358443
  0
ENDTAB
  0
TABLE
  2
LTYPE
  5
5
330
0
100
AcDbSymbolTable
 70
    4
  0
LTYPE
  5
14
330
5
100
AcDbSymbolTableRecord
100
AcDbLinetypeTableRecord
  2
ByBlock
 70
    0
  3

 72
   65
 73
    0
 40
0
  0
LTYPE
  5
15
330
5
100
AcDbSymbolTableRecord
100
AcDbLinetypeTableRecord
  2
ByLayer
 70
    0
  3

 72
   65
 73
    0
 40
0
  0
LTYPE
  5
16
330
5
100
AcDbSymbolTableRecord
100
AcDbLinetypeTableRecord
  2
Continuous
 70
    0
  3
Solid line
 72
   65
 73
    0
 40
0
  0
LTYPE
  5
32
330
5
100
AcDbSymbolTableRecord
100
AcDbLinetypeTableRecord
  2
DOT
 70
    0
  3
Dot . . . . . . . . . . . . . . . . . . . . . .
 72
   65
 73
    2
 40
6.35
 49
0
 74
    0
 49
-6.35
 74
    0
  0
LTYPE
  5
33
330
5
100
AcDbSymbolTableRecord
100
AcDbLinetypeTableRecord
  2
DOTTINY
 70
    0
  3
Dot (.15x) .....................................
 72
   65
 73
    2
 40
0.9525
 49
0
 74
    0
 49
-0.9525
 74
    0
  0
LTYPE
  5
34
330
5
100
AcDbSymbolTableRecord
100
AcDbLinetypeTableRecord
  2
DOT2
 70
    0
  3
Dot (.5x) .....................................
 72
   65
 73
    2
 40
3.175
 49
0
 74
    0
 49
-3.175
 74
    0
  0
LTYPE
  5
35
330
5
100
AcDbSymbolTableRecord
100
AcDbLinetypeTableRecord
  2
DOTX2
 70
    0
  3
Dot (2x) .  .  .  .  .  .  .  .  .  .  .  .  .
 72
   65
 73
    2
 40
12.7
 49
0
 74
    0
 49
-12.7
 74
    0
  0
LTYPE
  5
36
330
5
100
AcDbSymbolTableRecord
100
AcDbLinetypeTableRecord
  2
DASHED
 70
    0
  3
Dashed _ _ _ _ _ _ _ _ _ _ _ _ _ _ _ _ _
 72
   65
 73
    2
 40
19.05
 49
12.7
 74
    0
 49
-6.35
 74
    0
  0
LTYPE
  5
37
330
5
100
AcDbSymbolTableRecord
100
AcDbLinetypeTableRecord
  2
DASHEDTINY
 70
    0
  3
Dashed (.15x) _ _ _ _ _ _ _ _ _ _ _ _ _ _ _ _ _
 72
   65
 73
    2
 40
2.8575
 49
1.905
 74
    0
 49
-0.9525
 74
    0
  0
LTYPE
  5
38
330
5
100
AcDbSymbolTableRecord
100
AcDbLinetypeTableRecord
  2
DASHED2
 70
    0
  3
Dashed (.5x) _ _ _ _ _ _ _ _ _ _ _ _ _ _ _ _ _
 72
   65
 73
    2
 40
9.524999999999999
 49
6.35
 74
    0
 49
-3.175
 74
    0
  0
LTYPE
  5
39
330
5
100
AcDbSymbolTableRecord
100
AcDbLinetypeTableRecord
  2
DASHEDX2
 70
    0
  3
Dashed (2x) ____  ____  ____  ____  ____  ___
 72
   65
 73
    2
 40
38.09999999999999
 49
25.4
 74
    0
 49
-12.7
 74
    0
  0
LTYPE
  5
3A
330
5
100
AcDbSymbolTableRecord
100
AcDbLinetypeTableRecord
  2
DASHDOT
 70
    0
  3
Dash dot __ . __ . __ . __ . __ . __ . __ . __
 72
   65
 73
    4
 40
25.4
 49
12.7
 74
    0
 49
-6.35
 74
    0
 49
0
 74
    0
 49
-6.35
 74
    0
  0
LTYPE
  5
3B
330
5
100
AcDbSymbolTableRecord
100
AcDbLinetypeTableRecord
  2
DASHDOTTINY
 70
    0
  3
Dash dot (.15x) _._._._._._._._._._._._._._._.
 72
   65
 73
    4
 40
3.81
 49
1.905
 74
    0
 49
-0.9525
 74
    0
 49
0
 74
    0
 49
-0.9525
 74
    0
  0
LTYPE
  5
3C
330
5
100
AcDbSymbolTableRecord
100
AcDbLinetypeTableRecord
  2
DASHDOT2
 70
    0
  3
Dash dot (.5x) _._._._._._._._._._._._._._._.
 72
   65
 73
    4
 40
12.7
 49
6.35
 74
    0
 49
-3.175
 74
    0
 49
0
 74
    0
 49
-3.175
 74
    0
  0
LTYPE
  5
3D
330
5
100
AcDbSymbolTableRecord
100
AcDbLinetypeTableRecord
  2
DASHDOTX2
 70
    0
  3
Dash dot (2x) ____  .  ____  .  ____  .  ___
 72
   65
 73
    4
 40
50.8
 49
25.4
 74
    0
 49
-12.7
 74
    0
 49
0
 74
    0
 49
-12.7
 74
    0
  0
LTYPE
  5
3E
330
5
100
AcDbSymbolTableRecord
100
AcDbLinetypeTableRecord
  2
DIVIDE
 70
    0
  3
Divide ____ . . ____ . . ____ . . ____ . . ____
 72
   65
 73
    6
 40
31.75
 49
12.7
 74
    0
 49
-6.35
 74
    0
 49
0
 74
    0
 49
-6.35
 74
    0
 49
0
 74
    0
 49
-6.35
 74
    0
  0
LTYPE
  5
3F
330
5
100
AcDbSymbolTableRecord
100
AcDbLinetypeTableRecord
  2
DIVIDETINY
 70
    0
  3
Divide (.15x) __..__..__..__..__..__..__..__.._
 72
   65
 73
    6
 40
4.7625
 49
1.905
 74
    0
 49
-0.9525
 74
    0
 49
0
 74
    0
 49
-0.9525
 74
    0
 49
0
 74
    0
 49
-0.9525
 74
    0
  0
LTYPE
  5
40
330
5
100
AcDbSymbolTableRecord
100
AcDbLinetypeTableRecord
  2
DIVIDE2
 70
    0
  3
Divide (.5x) __..__..__..__..__..__..__..__.._
 72
   65
 73
    6
 40
15.875
 49
6.35
 74
    0
 49
-3.175
 74
    0
 49
0
 74
    0
 49
-3.175
 74
    0
 49
0
 74
    0
 49
-3.175
 74
    0
  0
LTYPE
  5
41
330
5
100
AcDbSymbolTableRecord
100
AcDbLinetypeTableRecord
  2
DIVIDEX2
 70
    0
  3
Divide (2x) ________  .  .  ________  .  .  _
 72
   65
 73
    6
 40
63.5
 49
25.4
 74
    0
 49
-12.7
 74
    0
 49
0
 74
    0
 49
-12.7
 74
    0
 49
0
 74
    0
 49
-12.7
 74
    0
  0
LTYPE
  5
42
330
5
100
AcDbSymbolTableRecord
100
AcDbLinetypeTableRecord
  2
BORDER
 70
    0
  3
Border __ __ . __ __ . __ __ . __ __ . __ __ .
 72
   65
 73
    6
 40
44.45
 49
12.7
 74
    0
 49
-6.35
 74
    0
 49
12.7
 74
    0
 49
-6.35
 74
    0
 49
0
 74
    0
 49
-6.35
 74
    0
  0
LTYPE
  5
43
330
5
100
AcDbSymbolTableRecord
100
AcDbLinetypeTableRecord
  2
BORDERTINY
 70
    0
  3
Border (.15x) __.__.__.__.__.__.__.__.__.__.__.
 72
   65
 73
    6
 40
6.6675
 49
1.905
 74
    0
 49
-0.9525
 74
    0
 49
1.905
 74
    0
 49
-0.9525
 74
    0
 49
0
 74
    0
 49
-0.9525
 74
    0
  0
LTYPE
  5
44
330
5
100
AcDbSymbolTableRecord
100
AcDbLinetypeTableRecord
  2
BORDER2
 70
    0
  3
Border (.5x) __.__.__.__.__.__.__.__.__.__.__.
 72
   65
 73
    6
 40
22.225
 49
6.35
 74
    0
 49
-3.175
 74
    0
 49
6.35
 74
    0
 49
-3.175
 74
    0
 49
0
 74
    0
 49
-3.175
 74
    0
  0
LTYPE
  5
45
330
5
100
AcDbSymbolTableRecord
100
AcDbLinetypeTableRecord
  2
BORDERX2
 70
    0
  3
Border (2x) ____  ____  .  ____  ____  .  ___
 72
   65
 73
    6
 40
88.89999999999999
 49
25.4
 74
    0
 49
-12.7
 74
    0
 49
25.4
 74
    0
 49
-12.7
 74
    0
 49
0
 74
    0
 49
-12.7
 74
    0
  0
LTYPE
  5
46
330
5
100
AcDbSymbolTableRecord
100
AcDbLinetypeTableRecord
  2
CENTER
 70
    0
  3
Center ____ _ ____ _ ____ _ ____ _ ____ _ ____
 72
   65
 73
    4
 40
50.8
 49
31.75
 74
    0
 49
-6.35
 74
    0
 49
6.35
 74
    0
 49
-6.35
 74
    0
  0
LTYPE
  5
47
330
5
100
AcDbSymbolTableRecord
100
AcDbLinetypeTableRecord
  2
CENTERTINY
 70
    0
  3
Center (.15x) ___ _ ___ _ ___ _ ___ _ ___ _ ___
 72
   65
 73
    4
 40
7.62
 49
4.7625
 74
    0
 49
-0.9525
 74
    0
 49
0.9525
 74
    0
 49
-0.9525
 74
    0
  0
LTYPE
  5
48
330
5
100
AcDbSymbolTableRecord
100
AcDbLinetypeTableRecord
  2
CENTER2
 70
    0
  3
Center (.5x) ___ _ ___ _ ___ _ ___ _ ___ _ ___
 72
   65
 73
    4
 40
28.575
 49
19.05
 74
    0
 49
-3.175
 74
    0
 49
3.175
 74
    0
 49
-3.175
 74
    0
  0
LTYPE
  5
49
330
5
100
AcDbSymbolTableRecord
100
AcDbLinetypeTableRecord
  2
CENTERX2
 70
    0
  3
Center (2x) ________  __  ________  __  _____
 72
   65
 73
    4
 40
101.6
 49
63.5
 74
    0
 49
-12.7
 74
    0
 49
12.7
 74
    0
 49
-12.7
 74
    0
  0
ENDTAB
  0
TABLE
  2
LAYER
  5
2
330
0
100
AcDbSymbolTable
 70
    1
  0
LAYER
  5
10
330
2
100
AcDbSymbolTableRecord
100
AcDbLayerTableRecord
  2
0
 70
    0
 62
    7
  6
CONTINUOUS
370
   -3
390
F
  0
LAYER
  5
4A
330
2
100
AcDbSymbolTableRecord
100
AcDbLayerTableRecord
  2
0BDLZ
 70
    0
 62
    7
  6
CONTINUOUS
370
   -3
390
F
  0
LAYER
  5
4B
330
2
100
AcDbSymbolTableRecord
100
AcDbLayerTableRecord
  2
CIRCLE
 70
    0
 62
    7
  6
CONTINUOUS
370
   -3
390
F
  0
LAYER
  5
4C
330
2
100
AcDbSymbolTableRecord
100
AcDbLayerTableRecord
  2
DEFAULT
 70
    0
 62
    7
  6
CONTINUOUS
370
   -3
390
F
  0
LAYER
  5
4D
330
2
100
AcDbSymbolTableRecord
100
AcDbLayerTableRecord
  2
DETELINA
 70
    0
 62
    7
  6
CONTINUOUS
370
   -3
390
F
  0
LAYER
  5
4E
330
2
100
AcDbSymbolTableRecord
100
AcDbLayerTableRecord
  2
ELIPSA_P
 70
    0
 62
    7
  6
CONTINUOUS
370
   -3
390
F
  0
LAYER
  5
4F
330
2
100
AcDbSymbolTableRecord
100
AcDbLayerTableRecord
  2
IZBOCINA
 70
    0
 62
    7
  6
CONTINUOUS
370
   -3
390
F
  0
LAYER
  5
50
330
2
100
AcDbSymbolTableRecord
100
AcDbLayerTableRecord
  2
KRISKA_CIRCLE
 70
    0
 62
    7
  6
CONTINUOUS
370
   -3
390
F
  0
LAYER
  5
51
330
2
100
AcDbSymbolTableRecord
100
AcDbLayerTableRecord
  2
KRST
 70
    0
 62
    7
  6
CONTINUOUS
370
   -3
390
F
  0
LAYER
  5
52
330
2
100
AcDbSymbolTableRecord
100
AcDbLayerTableRecord
  2
L
 70
    0
 62
    7
  6
CONTINUOUS
370
   -3
390
F
  0
LAYER
  5
53
330
2
100
AcDbSymbolTableRecord
100
AcDbLayerTableRecord
  2
PACKMAN
 70
    0
 62
    7
  6
CONTINUOUS
370
   -3
390
F
  0
LAYER
  5
54
330
2
100
AcDbSymbolTableRecord
100
AcDbLayerTableRecord
  2
PETOSTRAN
 70
    0
 62
    7
  6
CONTINUOUS
370
   -3
390
F
  0
LAYER
  5
55
330
2
100
AcDbSymbolTableRecord
100
AcDbLayerTableRecord
  2
POLUKRUG
 70
    0
 62
    7
  6
CONTINUOUS
370
   -3
390
F
  0
LAYER
  5
56
330
2
100
AcDbSymbolTableRecord
100
AcDbLayerTableRecord
  2
PRAVOKRUG
 70
    0
 62
    7
  6
CONTINUOUS
370
   -3
390
F
  0
LAYER
  5
57
330
2
100
AcDbSymbolTableRecord
100
AcDbLayerTableRecord
  2
ROMB
 70
    0
 62
    7
  6
CONTINUOUS
370
   -3
390
F
  0
LAYER
  5
58
330
2
100
AcDbSymbolTableRecord
100
AcDbLayerTableRecord
  2
SESTOSTRAN
 70
    0
 62
    7
  6
CONTINUOUS
370
   -3
390
F
  0
LAYER
  5
59
330
2
100
AcDbSymbolTableRecord
100
AcDbLayerTableRecord
  2
SQUARE
 70
    0
 62
    7
  6
CONTINUOUS
370
   -3
390
F
  0
LAYER
  5
5A
330
2
100
AcDbSymbolTableRecord
100
AcDbLayerTableRecord
  2
SRCE
 70
    0
 62
    7
  6
CONTINUOUS
370
   -3
390
F
  0
LAYER
  5
5B
330
2
100
AcDbSymbolTableRecord
100
AcDbLayerTableRecord
  2
T
 70
    0
 62
    7
  6
CONTINUOUS
370
   -3
390
F
  0
LAYER
  5
5C
330
2
100
AcDbSymbolTableRecord
100
AcDbLayerTableRecord
  2
TRAPEZ
 70
    0
 62
    7
  6
CONTINUOUS
370
   -3
390
F
  0
LAYER
  5
5D
330
2
100
AcDbSymbolTableRecord
100
AcDbLayerTableRecord
  2
TRIANGLE
 70
    0
 62
    7
  6
CONTINUOUS
370
   -3
390
F
  0
LAYER
  5
5E
330
2
100
AcDbSymbolTableRecord
100
AcDbLayerTableRecord
  2
TRIANGLE_NORMAL
 70
    0
 62
    7
  6
CONTINUOUS
370
   -3
390
F
  0
LAYER
  5
5F
330
2
100
AcDbSymbolTableRecord
100
AcDbLayerTableRecord
  2
VRH
 70
    0
 62
    7
  6
CONTINUOUS
370
   -3
390
F
  0
LAYER
  5
60
330
2
100
AcDbSymbolTableRecord
100
AcDbLayerTableRecord
  2
ZID
 70
    0
 62
    7
  6
CONTINUOUS
370
   -3
390
F
  0
LAYER
  5
61
330
2
100
AcDbSymbolTableRecord
100
AcDbLayerTableRecord
  2
ZID5
 70
    0
 62
    7
  6
CONTINUOUS
370
   -3
390
F
  0
LAYER
  5
62
330
2
100
AcDbSymbolTableRecord
100
AcDbLayerTableRecord
  2
ZID_1
 70
    0
 62
    7
  6
CONTINUOUS
370
   -3
390
F
  0
LAYER
  5
63
330
2
100
AcDbSymbolTableRecord
100
AcDbLayerTableRecord
  2
ZID_2
 70
    0
 62
    7
  6
CONTINUOUS
370
   -3
390
F
  0
LAYER
  5
64
330
2
100
AcDbSymbolTableRecord
100
AcDbLayerTableRecord
  2
ZID_3
 70
    0
 62
    7
  6
CONTINUOUS
370
   -3
390
F
  0
LAYER
  5
65
330
2
100
AcDbSymbolTableRecord
100
AcDbLayerTableRecord
  2
ZID_4
 70
    0
 62
    7
  6
CONTINUOUS
370
   -3
390
F
  0
LAYER
  5
66
330
2
100
AcDbSymbolTableRecord
100
AcDbLayerTableRecord
  2
ZVEZDA
 70
    0
 62
    7
  6
CONTINUOUS
370
   -3
390
F
  0
ENDTAB
  0
TABLE
  2
STYLE
  5
3
330
0
100
AcDbSymbolTable
 70
    3
  0
STYLE
  5
67
330
2
100
AcDbSymbolTableRecord
100
AcDbTextStyleTableRecord
  2
romanc
 70
    0
 40
0
 41
1
 50
0
 71
    0
 42
1
  3
romanc
  4

  0
STYLE
  5
68
330
2
100
AcDbSymbolTableRecord
100
AcDbTextStyleTableRecord
  2
Standard
 70
    0
 40
0
 41
1
 50
0
 71
    0
 42
1
  3
txt
  4

  0
ENDTAB
  0
TABLE
  2
VIEW
  5
6
330
0
100
AcDbSymbolTable
 70
    0
  0
ENDTAB
  0
TABLE
  2
UCS
  5
7
330
0
100
AcDbSymbolTable
 70
    0
  0
ENDTAB
  0
TABLE
  2
APPID
  5
9
330
0
100
AcDbSymbolTable
 70
    1
  0
APPID
  5
12
330
9
100
AcDbSymbolTableRecord
100
AcDbRegAppTableRecord
  2
ACAD
 70
    0
  0
APPID
  5
69
330
9
100
AcDbSymbolTableRecord
100
AcDbRegAppTableRecord
  2
LibreCad
 70
    0
  0
ENDTAB
  0
TABLE
  2
DIMSTYLE
  5
A
330
0
100
AcDbSymbolTable
 70
    1
100
AcDbDimStyleTable
 71
    1
  0
DIMSTYLE
105
6A
330
A
100
AcDbSymbolTableRecord
100
AcDbDimStyleTableRecord
  2
Standard
 70
    0
 40
1
 41
2.5
 42
0.625
 43
0.38
 44
1.25
 45
0
 46
0
 47
0
 48
0
 49
1
140
2.5
141
0.09
142
0
143
25.4
144
1
145
0
146
1
147
0.625
148
0
 71
    0
 72
    0
 73
    0
 74
    1
 75
    0
 76
    0
 77
    0
 78
    8
 79
    0
170
    0
171
    2
172
    0
173
    0
174
    0
175
    0
176
    0
177
    0
178
    0
179
    0
271
    2
272
    4
273
    2
274
    2
275
    0
276
    0
277
    2
278
    0
279
    0
280
    0
281
    0
282
    0
283
    1
284
    0
285
    0
286
    0
288
    0
289
    3
340
STANDARD
341

371
   -2
372
   -2
  0
ENDTAB
  0
TABLE
  2
BLOCK_RECORD
  5
1
330
0
100
AcDbSymbolTable
 70
    2
  0
BLOCK_RECORD
  5
1F
330
1
100
AcDbSymbolTableRecord
100
AcDbBlockTableRecord
  2
*Model_Space
 70
    0
280
    1
281
    0
  0
BLOCK_RECORD
  5
1E
330
1
100
AcDbSymbolTableRecord
100
AcDbBlockTableRecord
  2
*Paper_Space
 70
    0
280
    1
281
    0
  0
BLOCK_RECORD
  5
6B
330
1
100
AcDbSymbolTableRecord
100
AcDbBlockTableRecord
  2
SE
 70
    0
280
    1
281
    0
  0
ENDTAB
  0
ENDSEC
  0
SECTION
  2
BLOCKS
  0
BLOCK
  5
20
330
1F
100
AcDbEntity
  8
0
100
AcDbBlockBegin
  2
*Model_Space
 70
    0
 10
0
 20
0
 30
0
  3
*Model_Space
  1

  0
ENDBLK
  5
21
330
1F
100
AcDbEntity
  8
0
100
AcDbBlockEnd
  0
BLOCK
  5
1C
330
1B
100
AcDbEntity
  8
0
100
AcDbBlockBegin
  2
*Paper_Space
 70
    0
 10
0
 20
0
 30
0
  3
*Paper_Space
  1

  0
ENDBLK
  5
1D
330
1F
100
AcDbEntity
  8
0
100
AcDbBlockEnd
  0
BLOCK
  5
6C
330
6B
100
AcDbEntity
  8
0
100
AcDbBlockBegin
  2
SE
 70
    0
 10
0
 20
0
  3
SE
  1

  0
LINE
  5
6E
100
AcDbEntity
  8
ZID_1
  6
CONTINUOUS
 62
    7
370
   -1
100
AcDbLine
 10
173.3008611726
 20
569.810763587
 11
73.30086117259999
 21
569.810763587
  0
LINE
  5
6F
100
AcDbEntity
  8
ZID_1
  6
CONTINUOUS
 62
    7
370
   -1
100
AcDbLine
 10
68.30086117259999
 20
569.810763587
 11
73.30086117259999
 21
569.810763587
  0
LINE
  5
70
100
AcDbEntity
  8
ZID_1
  6
CONTINUOUS
 62
    7
370
   -1
100
AcDbLine
 10
173.3008610266
 20
569.810763587
 11
178.3008611726
 21
569.810763587
  0
LINE
  5
71
100
AcDbEntity
  8
ZID_1
  6
CONTINUOUS
 62
    7
370
   -1
100
AcDbLine
 10
68.30086117259999
 20
321.810763587
 11
73.30086117259999
 21
321.810763587
  0
LINE
  5
72
100
AcDbEntity
  8
ZID_1
  6
CONTINUOUS
 62
    7
370
   -1
100
AcDbLine
 10
173.3008611726
 20
321.810763587
 11
73.30086117259999
 21
321.810763587
  0
LINE
  5
73
100
AcDbEntity
  8
ZID_1
  6
CONTINUOUS
 62
    7
370
   -1
100
AcDbLine
 10
173.3008610266
 20
321.810763587
 11
178.3008611726
 21
321.810763587
  0
LINE
  5
74
100
AcDbEntity
  8
ZID_1
  6
CONTINUOUS
 62
    7
370
   -1
100
AcDbLine
 10
146.0989193945
 20
346.810763587
 11
89.30086117259999
 21
346.810763587
  0
ARC
  5
75
100
AcDbEntity
  8
ZID_1
  6
CONTINUOUS
 62
    7
370
   -1
100
AcDbCircle
 10
146.0989193945
 20
351.810763587
 40
5.000000000000025
100
AcDbArc
 50
270
 51
4.6256505795
  0
LINE
  5
76
100
AcDbEntity
  8
ZID_1
  6
CONTINUOUS
 62
    7
370
   -1
100
AcDbLine
 10
157.6012149461
 20
538.1006628704
 11
144.4982865125
 21
502.1006628704
  0
ARC
  5
77
100
AcDbEntity
  8
ZID_1
  6
CONTINUOUS
 62
    7
370
   -1
100
AcDbCircle
 10
152.9027518421
 20
539.810763587
 40
5.000000000000004
100
AcDbArc
 50
340
 51
90
  0
LINE
  5
78
100
AcDbEntity
  8
ZID_1
  6
CONTINUOUS
 62
    7
370
   -1
100
AcDbLine
 10
139.7998234085
 20
498.810763587
 11
106.8018987906
 21
498.810763587
  0
ARC
  5
79
100
AcDbEntity
  8
ZID_1
  6
CONTINUOUS
 62
    7
370
   -1
100
AcDbCircle
 10
139.7998234085
 20
503.810763587
 40
5.000000000000019
100
AcDbArc
 50
270
 51
340
  0
LINE
  5
7A
100
AcDbEntity
  8
ZID_1
  6
CONTINUOUS
 62
    7
370
   -1
100
AcDbLine
 10
102.1034356867
 20
502.1006628704
 11
89.0005072531
 21
538.1006628704
  0
ARC
  5
7B
100
AcDbEntity
  8
ZID_1
  6
CONTINUOUS
 62
    7
370
   -1
100
AcDbCircle
 10
106.8018987906
 20
503.810763587
 40
5.000000000000004
100
AcDbArc
 50
200
 51
270
  0
LINE
  5
7C
100
AcDbEntity
  8
ZID_1
  6
CONTINUOUS
 62
    7
370
   -1
100
AcDbLine
 10
93.69897035709999
 20
544.810763587
 11
152.9027518421
 21
544.810763587
  0
ARC
  5
7D
100
AcDbEntity
  8
ZID_1
  6
CONTINUOUS
 62
    7
370
   -1
100
AcDbCircle
 10
93.69897035709999
 20
539.810763587
 40
5.000000000000006
100
AcDbArc
 50
90
 51
200
  0
LINE
  5
7E
100
AcDbEntity
  8
ZID_1
  6
CONTINUOUS
 62
    7
370
   -1
100
AcDbLine
 10
103.2667038999
 20
464.810763587
 11
154.3008610996
 21
464.810763587
  0
ARC
  5
7F
100
AcDbEntity
  8
ZID_1
  6
CONTINUOUS
 62
    7
370
   -1
100
AcDbCircle
 10
103.2667038999
 20
459.810763587
 40
5.000000000000005
100
AcDbArc
 50
90
 51
235.2221686336
  0
LINE
  5
80
100
AcDbEntity
  8
ZID_1
  6
CONTINUOUS
 62
    7
370
   -1
100
AcDbLine
 10
159.3008610996
 20
459.810763587
 11
159.3008610996
 21
424.3703766428
  0
ARC
  5
81
100
AcDbEntity
  8
ZID_1
  6
CONTINUOUS
 62
    7
370
   -1
100
AcDbCircle
 10
154.3008610996
 20
459.810763587
 40
5.000000000000004
100
AcDbArc
 50
0
 51
90
  0
LINE
  5
82
100
AcDbEntity
  8
ZID_1
  6
CONTINUOUS
 62
    7
370
   -1
100
AcDbLine
 10
151.4488820521
 20
420.2635268144
 11
100.4147248524
 21
455.7039137587
  0
ARC
  5
83
100
AcDbEntity
  8
ZID_1
  6
CONTINUOUS
 62
    7
370
   -1
100
AcDbCircle
 10
154.3008610996
 20
424.3703766428
 40
4.999999999999963
100
AcDbArc
 50
235.2221686336
 51
0
  0
ARC
  5
84
100
AcDbEntity
  8
ZID_1
  6
CONTINUOUS
 62
    7
370
   -1
100
AcDbCircle
 10
84.30086117259999
 20
346.810763587
 40
67
100
AcDbArc
 50
4.6256505795
 51
85.3743494205
  0
ARC
  5
85
100
AcDbEntity
  8
ZID_1
  6
CONTINUOUS
 62
    7
370
   -1
100
AcDbCircle
 10
89.30086117259999
 20
408.6088218089
 40
4.999999999999976
100
AcDbArc
 50
85.3743494205
 51
180
  0
LINE
  5
86
100
AcDbEntity
  8
ZID_1
  6
CONTINUOUS
 62
    7
370
   -1
100
AcDbLine
 10
84.30086117259999
 20
351.810763587
 11
84.30086117259999
 21
408.6088218089
  0
ARC
  5
87
100
AcDbEntity
  8
ZID_1
  6
CONTINUOUS
 62
    7
370
   -1
100
AcDbCircle
 10
89.30086117259999
 20
351.810763587
 40
5.000000000000004
100
AcDbArc
 50
180
 51
270
  0
LINE
  5
88
100
AcDbEntity
  8
ZID_1
  6
CONTINUOUS
 62
    7
370
   -1
100
AcDbLine
 10
68.30086117259999
 20
569.810763587
 11
68.30086117259999
 21
321.810763587
  0
LINE
  5
89
100
AcDbEntity
  8
ZID_1
  6
CONTINUOUS
 62
    7
370
   -1
100
AcDbLine
 10
178.3008611726
 20
321.810763587
 11
178.3008611726
 21
569.810763587
  0
LINE
  5
8A
100
AcDbEntity
  8
ZID_2
  6
CONTINUOUS
 62
    7
370
   -1
100
AcDbLine
 10
198.3008611726
 20
569.810763587
 11
193.3008611726
 21
569.810763587
  0
LINE
  5
8B
100
AcDbEntity
  8
ZID_2
  6
CONTINUOUS
 62
    7
370
   -1
100
AcDbLine
 10
198.3008611726
 20
569.810763587
 11
298.3008611726
 21
569.810763587
  0
LINE
  5
8C
100
AcDbEntity
  8
ZID_2
  6
CONTINUOUS
 62
    7
370
   -1
100
AcDbLine
 10
298.3008611726
 20
569.810763587
 11
303.3008611726
 21
569.810763587
  0
LINE
  5
8D
100
AcDbEntity
  8
ZID_2
  6
CONTINUOUS
 62
    7
370
   -1
100
AcDbLine
 10
298.3008611726
 20
321.810763587
 11
303.3008611726
 21
321.810763587
  0
LINE
  5
8E
100
AcDbEntity
  8
ZID_2
  6
CONTINUOUS
 62
    7
370
   -1
100
AcDbLine
 10
198.3008611726
 20
321.810763587
 11
298.3008611726
 21
321.810763587
  0
LINE
  5
8F
100
AcDbEntity
  8
ZID_2
  6
CONTINUOUS
 62
    7
370
   -1
100
AcDbLine
 10
198.3008611726
 20
321.810763587
 11
193.3008611726
 21
321.810763587
  0
LINE
  5
90
100
AcDbEntity
  8
ZID_2
  6
CONTINUOUS
 62
    7
370
   -1
100
AcDbLine
 10
245.3008611726
 20
454.310763587
 11
245.3008611726
 21
429.310763587
  0
ARC
  5
91
100
AcDbEntity
  8
ZID_2
  6
CONTINUOUS
 62
    7
370
   -1
100
AcDbCircle
 10
268.3008611726
 20
454.310763587
 40
23.00000000000004
100
AcDbArc
 50
0
 51
180
  0
LINE
  5
92
100
AcDbEntity
  8
ZID_2
  6
CONTINUOUS
 62
    7
370
   -1
100
AcDbLine
 10
291.3008611726
 20
429.310763587
 11
291.3008611726
 21
454.310763587
  0
ARC
  5
93
100
AcDbEntity
  8
ZID_2
  6
CONTINUOUS
 62
    7
370
   -1
100
AcDbCircle
 10
268.3008611726
 20
429.310763587
 40
22.99999999999998
100
AcDbArc
 50
180
 51
0
  0
ELLIPSE
  5
94
100
AcDbEntity
  8
ZID_2
  6
CONTINUOUS
 62
    7
370
   -1
100
AcDbEllipse
 10
237.4566776232
 20
375.4001964492
 30
0
 11
18
 21
-31.17691453623981
 31
0
 40
0.6944444444
 41
0
 42
6.283185307179586
  0
LINE
  5
95
100
AcDbEntity
  8
ZID_2
  6
CONTINUOUS
 62
    7
370
   -1
100
AcDbLine
 10
244.3008611726
 20
485.2303646715
 11
244.3008611726
 21
509.810763587
  0
ARC
  5
96
100
AcDbEntity
  8
ZID_2
  6
CONTINUOUS
 62
    7
370
   -1
100
AcDbCircle
 10
239.3008611726
 20
485.2303646715
 40
5.00000000000002
100
AcDbArc
 50
260.4059317731
 51
0
  0
ARC
  5
97
100
AcDbEntity
  8
ZID_2
  6
CONTINUOUS
 62
    7
370
   -1
100
AcDbCircle
 10
244.3008611726
 20
514.810763587
 40
35.00000000000003
100
AcDbArc
 50
9.594068226899999
 51
260.4059317731
  0
ARC
  5
98
100
AcDbEntity
  8
ZID_2
  6
CONTINUOUS
 62
    7
370
   -1
100
AcDbCircle
 10
273.8812600881
 20
519.810763587
 40
5.000000000000023
100
AcDbArc
 50
270
 51
9.594068226899999
  0
LINE
  5
99
100
AcDbEntity
  8
ZID_2
  6
CONTINUOUS
 62
    7
370
   -1
100
AcDbLine
 10
249.3008611726
 20
514.810763587
 11
273.8812600881
 21
514.810763587
  0
ARC
  5
9A
100
AcDbEntity
  8
ZID_2
  6
CONTINUOUS
 62
    7
370
   -1
100
AcDbCircle
 10
249.3008611726
 20
509.810763587
 40
5.000000000000004
100
AcDbArc
 50
90
 51
180
  0
LINE
  5
9B
100
AcDbEntity
  8
ZID_2
  6
CONTINUOUS
 62
    7
370
   -1
100
AcDbLine
 10
303.3008611726
 20
321.810763587
 11
303.3008611726
 21
569.810763587
  0
LINE
  5
9C
100
AcDbEntity
  8
ZID_2
  6
CONTINUOUS
 62
    7
370
   -1
100
AcDbLine
 10
193.3008611726
 20
569.810763587
 11
193.3008611726
 21
321.810763587
  0
LINE
  5
9D
100
AcDbEntity
  8
ZID_3
  6
CONTINUOUS
 62
    7
370
   -1
100
AcDbLine
 10
423.3008611726
 20
569.810763587
 11
428.3008611726
 21
569.810763587
  0
LINE
  5
9E
100
AcDbEntity
  8
ZID_3
  6
CONTINUOUS
 62
    7
370
   -1
100
AcDbLine
 10
423.3008611726
 20
569.810763587
 11
323.3008611726
 21
569.810763587
  0
LINE
  5
9F
100
AcDbEntity
  8
ZID_3
  6
CONTINUOUS
 62
    7
370
   -1
100
AcDbLine
 10
323.3008611726
 20
569.810763587
 11
318.3008611726
 21
569.810763587
  0
LINE
  5
A0
100
AcDbEntity
  8
ZID_3
  6
CONTINUOUS
 62
    7
370
   -1
100
AcDbLine
 10
423.3008611726
 20
321.810763587
 11
323.3008611726
 21
321.810763587
  0
LINE
  5
A1
100
AcDbEntity
  8
ZID_3
  6
CONTINUOUS
 62
    7
370
   -1
100
AcDbLine
 10
423.3008611726
 20
321.810763587
 11
428.3008611726
 21
321.810763587
  0
LINE
  5
A2
100
AcDbEntity
  8
ZID_3
  6
CONTINUOUS
 62
    7
370
   -1
100
AcDbLine
 10
323.3008611726
 20
321.810763587
 11
318.3008611726
 21
321.810763587
  0
LINE
  5
A3
100
AcDbEntity
  8
ZID_3
  6
CONTINUOUS
 62
    7
370
   -1
100
AcDbLine
 10
367.111750305
 20
481.25413926
 11
392.4226394375
 21
495.867387914
  0
ARC
  5
A4
100
AcDbEntity
  8
ZID_3
  6
CONTINUOUS
 62
    7
370
   -1
100
AcDbCircle
 10
364.611750305
 20
485.5842662789
 40
5.000000000000026
100
AcDbArc
 50
240
 51
300
  0
LINE
  5
A5
100
AcDbEntity
  8
ZID_3
  6
CONTINUOUS
 62
    7
370
   -1
100
AcDbLine
 10
407.1328596348
 20
366.5595009286
 11
385.9196561992
 21
345.346297493
  0
ARC
  5
A6
100
AcDbEntity
  8
ZID_3
  6
CONTINUOUS
 62
    7
370
   -1
100
AcDbCircle
 10
403.5973257289
 20
370.0950348345
 40
5.000000000000058
100
AcDbArc
 50
315
 51
45
  0
LINE
  5
A7
100
AcDbEntity
  8
ZID_3
  6
CONTINUOUS
 62
    7
370
   -1
100
AcDbLine
 10
378.8485883873
 20
345.346297493
 11
337.8363950785
 21
386.3584908018
  0
ARC
  5
A8
100
AcDbEntity
  8
ZID_3
  6
CONTINUOUS
 62
    7
370
   -1
100
AcDbCircle
 10
382.3841222933
 20
348.8818313989
 40
5.000000000000009
100
AcDbArc
 50
225
 51
315
  0
LINE
  5
A9
100
AcDbEntity
  8
ZID_3
  6
CONTINUOUS
 62
    7
370
   -1
100
AcDbLine
 10
366.120666326
 20
414.6427620492
 11
407.1328596348
 21
373.6305687404
  0
ARC
  5
AA
100
AcDbEntity
  8
ZID_3
  6
CONTINUOUS
 62
    7
370
   -1
100
AcDbCircle
 10
362.58513242
 20
411.1072281433
 40
4.999999999999974
100
AcDbArc
 50
45
 51
135
  0
LINE
  5
AB
100
AcDbEntity
  8
ZID_3
  6
CONTINUOUS
 62
    7
370
   -1
100
AcDbLine
 10
337.8363950785
 20
393.4295586136
 11
359.0495985141
 21
414.6427620492
  0
ARC
  5
AC
100
AcDbEntity
  8
ZID_3
  6
CONTINUOUS
 62
    7
370
   -1
100
AcDbCircle
 10
341.3719289844
 20
389.8940247077
 40
4.999999999999985
100
AcDbArc
 50
135
 51
225
  0
LINE
  5
AD
100
AcDbEntity
  8
ZID_3
  6
CONTINUOUS
 62
    7
370
   -1
100
AcDbLine
 10
389.3043056938
 20
411.810763587
 11
407.3008611726
 21
411.810763587
  0
ARC
  5
AE
100
AcDbEntity
  8
ZID_3
  6
CONTINUOUS
 62
    7
370
   -1
100
AcDbCircle
 10
389.3043056938
 20
416.810763587
 40
5.000000000000004
100
AcDbArc
 50
224.9704893
 51
270
  0
LINE
  5
AF
100
AcDbEntity
  8
ZID_3
  6
CONTINUOUS
 62
    7
370
   -1
100
AcDbLine
 10
412.3008611726
 20
416.810763587
 11
412.3008611726
 21
474.810763587
  0
ARC
  5
B0
100
AcDbEntity
  8
ZID_3
  6
CONTINUOUS
 62
    7
370
   -1
100
AcDbCircle
 10
407.3008611726
 20
416.810763587
 40
4.999999999999964
100
AcDbArc
 50
270
 51
0
  0
LINE
  5
B1
100
AcDbEntity
  8
ZID_3
  6
CONTINUOUS
 62
    7
370
   -1
100
AcDbLine
 10
407.3008611726
 20
479.810763587
 11
389.3043056938
 21
479.810763587
  0
ARC
  5
B2
100
AcDbEntity
  8
ZID_3
  6
CONTINUOUS
 62
    7
370
   -1
100
AcDbCircle
 10
407.3008611726
 20
474.810763587
 40
5.000000000000004
100
AcDbArc
 50
0
 51
90
  0
ARC
  5
B3
100
AcDbEntity
  8
ZID_3
  6
CONTINUOUS
 62
    7
370
   -1
100
AcDbCircle
 10
418.3341945059
 20
445.810763587
 40
46.03333333333339
100
AcDbArc
 50
135.0295107
 51
224.9704893
  0
ARC
  5
B4
100
AcDbEntity
  8
ZID_3
  6
CONTINUOUS
 62
    7
370
   -1
100
AcDbCircle
 10
389.3043056938
 20
474.810763587
 40
5.000000000000003
100
AcDbArc
 50
90
 51
135.0295107
  0
LINE
  5
B5
100
AcDbEntity
  8
ZID_3
  6
CONTINUOUS
 62
    7
370
   -1
100
AcDbLine
 10
336.8008611726
 20
495.867387914
 11
362.111750305
 21
481.25413926
  0
ARC
  5
B6
100
AcDbEntity
  8
ZID_3
  6
CONTINUOUS
 62
    7
370
   -1
100
AcDbCircle
 10
339.3008611726
 20
500.197514933
 40
5.000000000000023
100
AcDbArc
 50
180
 51
240
  0
LINE
  5
B7
100
AcDbEntity
  8
ZID_3
  6
CONTINUOUS
 62
    7
370
   -1
100
AcDbLine
 10
334.3008611726
 20
529.4240122410999
 11
334.3008611726
 21
500.197514933
  0
ARC
  5
B8
100
AcDbEntity
  8
ZID_3
  6
CONTINUOUS
 62
    7
370
   -1
100
AcDbCircle
 10
339.3008611726
 20
529.4240122410999
 40
5.00000000000002
100
AcDbArc
 50
120
 51
180
  0
LINE
  5
B9
100
AcDbEntity
  8
ZID_3
  6
CONTINUOUS
 62
    7
370
   -1
100
AcDbLine
 10
362.111750305
 20
548.367387914
 11
336.8008611726
 21
533.75413926
  0
ARC
  5
BA
100
AcDbEntity
  8
ZID_3
  6
CONTINUOUS
 62
    7
370
   -1
100
AcDbCircle
 10
364.611750305
 20
544.0372608951
 40
5.000000000000006
100
AcDbArc
 50
59.99999999999999
 51
120
  0
LINE
  5
BB
100
AcDbEntity
  8
ZID_3
  6
CONTINUOUS
 62
    7
370
   -1
100
AcDbLine
 10
392.4226394375
 20
533.75413926
 11
367.111750305
 21
548.367387914
  0
ARC
  5
BC
100
AcDbEntity
  8
ZID_3
  6
CONTINUOUS
 62
    7
370
   -1
100
AcDbCircle
 10
389.9226394375
 20
529.4240122410999
 40
5.000000000000015
100
AcDbArc
 50
0
 51
59.99999999999999
  0
LINE
  5
BD
100
AcDbEntity
  8
ZID_3
  6
CONTINUOUS
 62
    7
370
   -1
100
AcDbLine
 10
394.9226394375
 20
500.197514933
 11
394.9226394375
 21
529.4240122410999
  0
ARC
  5
BE
100
AcDbEntity
  8
ZID_3
  6
CONTINUOUS
 62
    7
370
   -1
100
AcDbCircle
 10
389.9226394375
 20
500.197514933
 40
5.00000000000002
100
AcDbArc
 50
300
 51
0
  0
LINE
  5
BF
100
AcDbEntity
  8
ZID_3
  6
CONTINUOUS
 62
    7
370
   -1
100
AcDbLine
 10
428.3008611726
 20
321.810763587
 11
428.3008611726
 21
569.810763587
  0
LINE
  5
C0
100
AcDbEntity
  8
ZID_3
  6
CONTINUOUS
 62
    7
370
   -1
100
AcDbLine
 10
318.3008611726
 20
569.810763587
 11
318.3008611726
 21
321.810763587
  0
LINE
  5
C1
100
AcDbEntity
  8
ZID_4
  6
CONTINUOUS
 62
    7
370
   -1
100
AcDbLine
 10
443.3008611726
 20
569.810763587
 11
448.3008611726
 21
569.810763587
  0
LINE
  5
C2
100
AcDbEntity
  8
ZID_4
  6
CONTINUOUS
 62
    7
370
   -1
100
AcDbLine
 10
448.3008611726
 20
569.810763587
 11
548.3008611726
 21
569.810763587
  0
LINE
  5
C3
100
AcDbEntity
  8
ZID_4
  6
CONTINUOUS
 62
    7
370
   -1
100
AcDbLine
 10
553.3008611726
 20
569.810763587
 11
548.3008611726
 21
569.810763587
  0
LINE
  5
C4
100
AcDbEntity
  8
ZID_4
  6
CONTINUOUS
 62
    7
370
   -1
100
AcDbLine
 10
553.3008611726
 20
321.810763587
 11
548.3008611726
 21
321.810763587
  0
LINE
  5
C5
100
AcDbEntity
  8
ZID_4
  6
CONTINUOUS
 62
    7
370
   -1
100
AcDbLine
 10
448.3008611726
 20
321.810763587
 11
548.3008611726
 21
321.810763587
  0
LINE
  5
C6
100
AcDbEntity
  8
ZID_4
  6
CONTINUOUS
 62
    7
370
   -1
100
AcDbLine
 10
443.3008611726
 20
321.810763587
 11
448.3008611726
 21
321.810763587
  0
LINE
  5
C7
100
AcDbEntity
  8
ZID_4
  6
CONTINUOUS
 62
    7
370
   -1
100
AcDbLine
 10
480.3008611726
 20
422.810763587
 11
500.3008611726
 21
422.810763587
  0
ARC
  5
C8
100
AcDbEntity
  8
ZID_4
  6
CONTINUOUS
 62
    7
370
   -1
100
AcDbCircle
 10
480.3008611726
 20
427.810763587
 40
5.000000000000004
100
AcDbArc
 50
180
 51
270
  0
LINE
  5
C9
100
AcDbEntity
  8
ZID_4
  6
CONTINUOUS
 62
    7
370
   -1
100
AcDbLine
 10
478.3008611726
 20
488.810763587
 11
478.3008611726
 21
497.810763587
  0
ARC
  5
CA
100
AcDbEntity
  8
ZID_4
  6
CONTINUOUS
 62
    7
370
   -1
100
AcDbCircle
 10
483.3008611726
 20
488.810763587
 40
5.000000000000004
100
AcDbArc
 50
180
 51
270
  0
LINE
  5
CB
100
AcDbEntity
  8
ZID_4
  6
CONTINUOUS
 62
    7
370
   -1
100
AcDbLine
 10
473.3008611726
 20
502.810763587
 11
464.3008611726
 21
502.810763587
  0
ARC
  5
CC
100
AcDbEntity
  8
ZID_4
  6
CONTINUOUS
 62
    7
370
   -1
100
AcDbCircle
 10
473.3008611726
 20
497.810763587
 40
5.000000000000027
100
AcDbArc
 50
0
 51
90
  0
LINE
  5
CD
100
AcDbEntity
  8
ZID_4
  6
CONTINUOUS
 62
    7
370
   -1
100
AcDbLine
 10
459.3008611726
 20
507.810763587
 11
459.3008611726
 21
525.810763587
  0
ARC
  5
CE
100
AcDbEntity
  8
ZID_4
  6
CONTINUOUS
 62
    7
370
   -1
100
AcDbCircle
 10
464.3008611726
 20
507.810763587
 40
5.000000000000004
100
AcDbArc
 50
180
 51
270
  0
LINE
  5
CF
100
AcDbEntity
  8
ZID_4
  6
CONTINUOUS
 62
    7
370
   -1
100
AcDbLine
 10
464.3008611726
 20
530.810763587
 11
473.3008611726
 21
530.810763587
  0
ARC
  5
D0
100
AcDbEntity
  8
ZID_4
  6
CONTINUOUS
 62
    7
370
   -1
100
AcDbCircle
 10
464.3008611726
 20
525.810763587
 40
5.000000000000006
100
AcDbArc
 50
90
 51
180
  0
LINE
  5
D1
100
AcDbEntity
  8
ZID_4
  6
CONTINUOUS
 62
    7
370
   -1
100
AcDbLine
 10
478.3008611726
 20
535.810763587
 11
478.3008611726
 21
544.810763587
  0
ARC
  5
D2
100
AcDbEntity
  8
ZID_4
  6
CONTINUOUS
 62
    7
370
   -1
100
AcDbCircle
 10
473.3008611726
 20
535.810763587
 40
5.000000000000004
100
AcDbArc
 50
270
 51
0
  0
LINE
  5
D3
100
AcDbEntity
  8
ZID_4
  6
CONTINUOUS
 62
    7
370
   -1
100
AcDbLine
 10
483.3008611726
 20
549.810763587
 11
501.3008611726
 21
549.810763587
  0
ARC
  5
D4
100
AcDbEntity
  8
ZID_4
  6
CONTINUOUS
 62
    7
370
   -1
100
AcDbCircle
 10
483.3008611726
 20
544.810763587
 40
5.000000000000013
100
AcDbArc
 50
90
 51
180
  0
LINE
  5
D5
100
AcDbEntity
  8
ZID_4
  6
CONTINUOUS
 62
    7
370
   -1
100
AcDbLine
 10
506.3008611726
 20
544.810763587
 11
506.3008611726
 21
535.810763587
  0
ARC
  5
D6
100
AcDbEntity
  8
ZID_4
  6
CONTINUOUS
 62
    7
370
   -1
100
AcDbCircle
 10
501.3008611726
 20
544.810763587
 40
5.000000000000004
100
AcDbArc
 50
0
 51
90
  0
LINE
  5
D7
100
AcDbEntity
  8
ZID_4
  6
CONTINUOUS
 62
    7
370
   -1
100
AcDbLine
 10
525.3008611726
 20
525.810763587
 11
525.3008611726
 21
507.810763587
  0
ARC
  5
D8
100
AcDbEntity
  8
ZID_4
  6
CONTINUOUS
 62
    7
370
   -1
100
AcDbCircle
 10
520.3008611726
 20
525.810763587
 40
5.000000000000004
100
AcDbArc
 50
0
 51
90
  0
LINE
  5
D9
100
AcDbEntity
  8
ZID_4
  6
CONTINUOUS
 62
    7
370
   -1
100
AcDbLine
 10
511.3008611726
 20
530.810763587
 11
520.3008611726
 21
530.810763587
  0
ARC
  5
DA
100
AcDbEntity
  8
ZID_4
  6
CONTINUOUS
 62
    7
370
   -1
100
AcDbCircle
 10
511.3008611726
 20
535.810763587
 40
4.999999999999964
100
AcDbArc
 50
180
 51
270
  0
LINE
  5
DB
100
AcDbEntity
  8
ZID_4
  6
CONTINUOUS
 62
    7
370
   -1
100
AcDbLine
 10
520.3008611726
 20
502.810763587
 11
511.3008611726
 21
502.810763587
  0
ARC
  5
DC
100
AcDbEntity
  8
ZID_4
  6
CONTINUOUS
 62
    7
370
   -1
100
AcDbCircle
 10
520.3008611726
 20
507.810763587
 40
4.999999999999986
100
AcDbArc
 50
270
 51
0
  0
LINE
  5
DD
100
AcDbEntity
  8
ZID_4
  6
CONTINUOUS
 62
    7
370
   -1
100
AcDbLine
 10
506.3008611726
 20
497.810763587
 11
506.3008611726
 21
488.810763587
  0
ARC
  5
DE
100
AcDbEntity
  8
ZID_4
  6
CONTINUOUS
 62
    7
370
   -1
100
AcDbCircle
 10
511.3008611726
 20
497.810763587
 40
5.000000000000004
100
AcDbArc
 50
90
 51
180
  0
LINE
  5
DF
100
AcDbEntity
  8
ZID_4
  6
CONTINUOUS
 62
    7
370
   -1
100
AcDbLine
 10
501.3008611726
 20
483.810763587
 11
483.3008611726
 21
483.810763587
  0
ARC
  5
E0
100
AcDbEntity
  8
ZID_4
  6
CONTINUOUS
 62
    7
370
   -1
100
AcDbCircle
 10
501.3008611726
 20
488.810763587
 40
4.999999999999986
100
AcDbArc
 50
270
 51
0
  0
LINE
  5
E1
100
AcDbEntity
  8
ZID_4
  6
CONTINUOUS
 62
    7
370
   -1
100
AcDbLine
 10
525.3008611726
 20
346.810763587
 11
525.3008611726
 21
368.810763587
  0
ARC
  5
E2
100
AcDbEntity
  8
ZID_4
  6
CONTINUOUS
 62
    7
370
   -1
100
AcDbCircle
 10
520.3008611726
 20
346.810763587
 40
4.999999999999979
100
AcDbArc
 50
270
 51
0
  0
LINE
  5
E3
100
AcDbEntity
  8
ZID_4
  6
CONTINUOUS
 62
    7
370
   -1
100
AcDbLine
 10
520.3008611726
 20
373.810763587
 11
496.3008611726
 21
373.810763587
  0
ARC
  5
E4
100
AcDbEntity
  8
ZID_4
  6
CONTINUOUS
 62
    7
370
   -1
100
AcDbCircle
 10
520.3008611726
 20
368.810763587
 40
5.000000000000004
100
AcDbArc
 50
0
 51
90
  0
LINE
  5
E5
100
AcDbEntity
  8
ZID_4
  6
CONTINUOUS
 62
    7
370
   -1
100
AcDbLine
 10
491.3008611726
 20
378.810763587
 11
491.3008611726
 21
402.810763587
  0
ARC
  5
E6
100
AcDbEntity
  8
ZID_4
  6
CONTINUOUS
 62
    7
370
   -1
100
AcDbCircle
 10
496.3008611726
 20
378.810763587
 40
5.00000000000002
100
AcDbArc
 50
180
 51
270
  0
LINE
  5
E7
100
AcDbEntity
  8
ZID_4
  6
CONTINUOUS
 62
    7
370
   -1
100
AcDbLine
 10
486.3008611726
 20
407.810763587
 11
464.3008611726
 21
407.810763587
  0
ARC
  5
E8
100
AcDbEntity
  8
ZID_4
  6
CONTINUOUS
 62
    7
370
   -1
100
AcDbCircle
 10
486.3008611726
 20
402.810763587
 40
5.000000000000004
100
AcDbArc
 50
0
 51
90
  0
LINE
  5
E9
100
AcDbEntity
  8
ZID_4
  6
CONTINUOUS
 62
    7
370
   -1
100
AcDbLine
 10
459.3008611726
 20
402.810763587
 11
459.3008611726
 21
346.810763587
  0
ARC
  5
EA
100
AcDbEntity
  8
ZID_4
  6
CONTINUOUS
 62
    7
370
   -1
100
AcDbCircle
 10
464.3008611726
 20
402.810763587
 40
5.000000000000034
100
AcDbArc
 50
90
 51
180
  0
LINE
  5
EB
100
AcDbEntity
  8
ZID_4
  6
CONTINUOUS
 62
    7
370
   -1
100
AcDbLine
 10
464.3008611726
 20
341.810763587
 11
520.3008611726
 21
341.810763587
  0
ARC
  5
EC
100
AcDbEntity
  8
ZID_4
  6
CONTINUOUS
 62
    7
370
   -1
100
AcDbCircle
 10
464.3008611726
 20
346.810763587
 40
5.000000000000004
100
AcDbArc
 50
180
 51
270
  0
LINE
  5
ED
100
AcDbEntity
  8
ZID_4
  6
CONTINUOUS
 62
    7
370
   -1
100
AcDbLine
 10
505.3008611726
 20
417.810763587
 11
505.3008611726
 21
410.810763587
  0
ARC
  5
EE
100
AcDbEntity
  8
ZID_4
  6
CONTINUOUS
 62
    7
370
   -1
100
AcDbCircle
 10
500.3008611726
 20
417.810763587
 40
5.000000000000034
100
AcDbArc
 50
0
 51
90
  0
LINE
  5
EF
100
AcDbEntity
  8
ZID_4
  6
CONTINUOUS
 62
    7
370
   -1
100
AcDbLine
 10
510.3008611726
 20
405.810763587
 11
532.3008611726
 21
405.810763587
  0
ARC
  5
F0
100
AcDbEntity
  8
ZID_4
  6
CONTINUOUS
 62
    7
370
   -1
100
AcDbCircle
 10
510.3008611726
 20
410.810763587
 40
5.000000000000004
100
AcDbArc
 50
180
 51
270
  0
LINE
  5
F1
100
AcDbEntity
  8
ZID_4
  6
CONTINUOUS
 62
    7
370
   -1
100
AcDbLine
 10
537.3008611726
 20
410.810763587
 11
537.3008611726
 21
466.810763587
  0
ARC
  5
F2
100
AcDbEntity
  8
ZID_4
  6
CONTINUOUS
 62
    7
370
   -1
100
AcDbCircle
 10
532.3008611726
 20
410.810763587
 40
5.000000000000034
100
AcDbArc
 50
270
 51
0
  0
LINE
  5
F3
100
AcDbEntity
  8
ZID_4
  6
CONTINUOUS
 62
    7
370
   -1
100
AcDbLine
 10
532.3008611726
 20
471.810763587
 11
510.3008611726
 21
471.810763587
  0
ARC
  5
F4
100
AcDbEntity
  8
ZID_4
  6
CONTINUOUS
 62
    7
370
   -1
100
AcDbCircle
 10
532.3008611726
 20
466.810763587
 40
5.000000000000004
100
AcDbArc
 50
0
 51
90
  0
LINE
  5
F5
100
AcDbEntity
  8
ZID_4
  6
CONTINUOUS
 62
    7
370
   -1
100
AcDbLine
 10
505.3008611726
 20
466.810763587
 11
505.3008611726
 21
459.810763587
  0
ARC
  5
F6
100
AcDbEntity
  8
ZID_4
  6
CONTINUOUS
 62
    7
370
   -1
100
AcDbCircle
 10
510.3008611726
 20
466.810763587
 40
5.00000000000002
100
AcDbArc
 50
90
 51
180
  0
LINE
  5
F7
100
AcDbEntity
  8
ZID_4
  6
CONTINUOUS
 62
    7
370
   -1
100
AcDbLine
 10
500.3008611726
 20
454.810763587
 11
480.3008611726
 21
454.810763587
  0
ARC
  5
F8
100
AcDbEntity
  8
ZID_4
  6
CONTINUOUS
 62
    7
370
   -1
100
AcDbCircle
 10
500.3008611726
 20
459.810763587
 40
5.000000000000004
100
AcDbArc
 50
270
 51
0
  0
LINE
  5
F9
100
AcDbEntity
  8
ZID_4
  6
CONTINUOUS
 62
    7
370
   -1
100
AcDbLine
 10
475.3008611726
 20
449.810763587
 11
475.3008611726
 21
427.810763587
  0
ARC
  5
FA
100
AcDbEntity
  8
ZID_4
  6
CONTINUOUS
 62
    7
370
   -1
100
AcDbCircle
 10
480.3008611726
 20
449.810763587
 40
5.000000000000013
100
AcDbArc
 50
90
 51
180
  0
LINE
  5
FB
100
AcDbEntity
  8
ZID_4
  6
CONTINUOUS
 62
    7
370
   -1
100
AcDbLine
 10
553.3008611726
 20
321.810763587
 11
553.3008611726
 21
569.810763587
  0
LINE
  5
FC
100
AcDbEntity
  8
ZID_4
  6
CONTINUOUS
 62
    7
370
   -1
100
AcDbLine
 10
443.3008611726
 20
569.810763587
 11
443.3008611726
 21
321.810763587
  0
LINE
  5
FD
100
AcDbEntity
  8
ZID
  6
CONTINUOUS
 62
    7
370
   -1
100
AcDbLine
 10
673.3008611726
 20
569.810763587
 11
678.3008611726
 21
569.810763587
  0
LINE
  5
FE
100
AcDbEntity
  8
ZID
  6
CONTINUOUS
 62
    7
370
   -1
100
AcDbLine
 10
673.3008611726
 20
569.810763587
 11
573.3008611726
 21
569.810763587
  0
LINE
  5
FF
100
AcDbEntity
  8
ZID
  6
CONTINUOUS
 62
    7
370
   -1
100
AcDbLine
 10
573.3008611726
 20
569.810763587
 11
568.3008611726
 21
569.810763587
  0
LINE
  5
100
100
AcDbEntity
  8
ZID
  6
CONTINUOUS
 62
    7
370
   -1
100
AcDbLine
 10
673.3008611726
 20
321.810763587
 11
573.3008611726
 21
321.810763587
  0
LINE
  5
101
100
AcDbEntity
  8
ZID
  6
CONTINUOUS
 62
    7
370
   -1
100
AcDbLine
 10
673.3008611726
 20
321.810763587
 11
678.3008611726
 21
321.810763587
  0
LINE
  5
102
100
AcDbEntity
  8
ZID
  6
CONTINUOUS
 62
    7
370
   -1
100
AcDbLine
 10
573.3008611726
 20
321.810763587
 11
568.3008611726
 21
321.810763587
  0
LINE
  5
103
100
AcDbEntity
  8
ZID
  6
CONTINUOUS
 62
    7
370
   -1
100
AcDbLine
 10
662.3008611726
 20
354.9434762271
 11
662.3008611726
 21
392.678050947
  0
ARC
  5
104
100
AcDbEntity
  8
ZID
  6
CONTINUOUS
 62
    7
370
   -1
100
AcDbCircle
 10
657.3008611726
 20
354.9434762271
 40
5.000000000000006
100
AcDbArc
 50
288
 51
0
  0
LINE
  5
105
100
AcDbEntity
  8
ZID
  6
CONTINUOUS
 62
    7
370
   -1
100
AcDbLine
 10
612.3008611726
 20
542.0180230087
 11
612.3008611726
 21
493.5650283925
  0
ARC
  5
106
100
AcDbEntity
  8
ZID
  6
CONTINUOUS
 62
    7
370
   -1
100
AcDbCircle
 10
617.3008611726
 20
542.0180230087
 40
5.000000000000048
100
AcDbArc
 50
59.99999999999999
 51
180
  0
LINE
  5
107
100
AcDbEntity
  8
ZID
  6
CONTINUOUS
 62
    7
370
   -1
100
AcDbLine
 10
659.8008611726
 20
523.25413926
 11
619.8008611726
 21
546.3481500276
  0
ARC
  5
108
100
AcDbEntity
  8
ZID
  6
CONTINUOUS
 62
    7
370
   -1
100
AcDbCircle
 10
657.3008611726
 20
518.9240122410999
 40
4.999999999999975
100
AcDbArc
 50
0
 51
59.99999999999999
  0
LINE
  5
109
100
AcDbEntity
  8
ZID
  6
CONTINUOUS
 62
    7
370
   -1
100
AcDbLine
 10
614.8008611726
 20
489.2349013735
 11
654.8008611726
 21
466.1408906059
  0
ARC
  5
10A
100
AcDbEntity
  8
ZID
  6
CONTINUOUS
 62
    7
370
   -1
100
AcDbCircle
 10
617.3008611726
 20
493.5650283925
 40
5.000000000000037
100
AcDbArc
 50
180
 51
240
  0
LINE
  5
10B
100
AcDbEntity
  8
ZID
  6
CONTINUOUS
 62
    7
370
   -1
100
AcDbLine
 10
662.3008611726
 20
470.4710176249
 11
662.3008611726
 21
518.9240122410999
  0
ARC
  5
10C
100
AcDbEntity
  8
ZID
  6
CONTINUOUS
 62
    7
370
   -1
100
AcDbCircle
 10
657.3008611726
 20
470.4710176249
 40
5.000000000000006
100
AcDbArc
 50
240
 51
0
  0
ARC
  5
10D
100
AcDbEntity
  8
ZID
  6
CONTINUOUS
 62
    7
370
   -1
100
AcDbCircle
 10
584.3008611726
 20
445.810763587
 40
35.99999999999999
100
AcDbArc
 50
279.2817990867
 51
80.7182009133
  0
ARC
  5
10E
100
AcDbEntity
  8
ZID
  6
CONTINUOUS
 62
    7
370
   -1
100
AcDbCircle
 10
589.3008611726
 20
415.2166465055
 40
4.999999999999992
100
AcDbArc
 50
180
 51
279.2817990867
  0
LINE
  5
10F
100
AcDbEntity
  8
ZID
  6
CONTINUOUS
 62
    7
370
   -1
100
AcDbLine
 10
584.3008611726
 20
476.4048806686
 11
584.3008611726
 21
415.2166465055
  0
ARC
  5
110
100
AcDbEntity
  8
ZID
  6
CONTINUOUS
 62
    7
370
   -1
100
AcDbCircle
 10
589.3008611726
 20
476.4048806686
 40
4.999999999999992
100
AcDbArc
 50
80.7182009133
 51
180
  0
LINE
  5
111
100
AcDbEntity
  8
ZID
  6
CONTINUOUS
 62
    7
370
   -1
100
AcDbLine
 10
595.1882365018
 20
370.8718373256
 11
617.3680630237
 21
340.3439251016
  0
ARC
  5
112
100
AcDbEntity
  8
ZID
  6
CONTINUOUS
 62
    7
370
   -1
100
AcDbCircle
 10
599.2333214736
 20
373.810763587
 40
5.000000000000012
100
AcDbArc
 50
144
 51
216
  0
LINE
  5
113
100
AcDbEntity
  8
ZID
  6
CONTINUOUS
 62
    7
370
   -1
100
AcDbLine
 10
617.3680630237
 20
407.2776020724
 11
595.1882365018
 21
376.7496898485
  0
ARC
  5
114
100
AcDbEntity
  8
ZID
  6
CONTINUOUS
 62
    7
370
   -1
100
AcDbCircle
 10
621.4131479956
 20
404.338675811
 40
5.000000000000034
100
AcDbArc
 50
72
 51
144
  0
LINE
  5
115
100
AcDbEntity
  8
ZID
  6
CONTINUOUS
 62
    7
370
   -1
100
AcDbLine
 10
658.8459461445
 20
397.4333335285
 11
622.9582329674
 21
409.0939583924
  0
ARC
  5
116
100
AcDbEntity
  8
ZID
  6
CONTINUOUS
 62
    7
370
   -1
100
AcDbCircle
 10
657.3008611726
 20
392.678050947
 40
4.99999999999998
100
AcDbArc
 50
0
 51
72
  0
LINE
  5
117
100
AcDbEntity
  8
ZID
  6
CONTINUOUS
 62
    7
370
   -1
100
AcDbLine
 10
622.9582329674
 20
338.5275687816
 11
658.8459461445
 21
350.1881936456
  0
ARC
  5
118
100
AcDbEntity
  8
ZID
  6
CONTINUOUS
 62
    7
370
   -1
100
AcDbCircle
 10
621.4131479956
 20
343.2828513631
 40
5.000000000000041
100
AcDbArc
 50
216
 51
288
  0
LINE
  5
119
100
AcDbEntity
  8
ZID
  6
CONTINUOUS
 62
    7
370
   -1
100
AcDbLine
 10
678.3008611726
 20
321.810763587
 11
678.3008611726
 21
569.810763587
  0
LINE
  5
11A
100
AcDbEntity
  8
ZID
  6
CONTINUOUS
 62
    7
370
   -1
100
AcDbLine
 10
568.3008611726
 20
569.810763587
 11
568.3008611726
 21
321.810763587
  0
LINE
  5
11B
100
AcDbEntity
  8
ZID5
  6
CONTINUOUS
 62
    7
370
   -1
100
AcDbLine
 10
693.8008611726
 20
315.810763587
 11
698.3008611726
 21
315.810763587
  0
LINE
  5
11C
100
AcDbEntity
  8
ZID5
  6
CONTINUOUS
 62
    7
370
   -1
100
AcDbLine
 10
698.3008611726
 20
315.810763587
 11
798.3008611726
 21
315.810763587
  0
LINE
  5
11D
100
AcDbEntity
  8
ZID5
  6
CONTINUOUS
 62
    7
370
   -1
100
AcDbLine
 10
802.8008611726
 20
315.810763587
 11
798.3008611726
 21
315.810763587
  0
LINE
  5
11E
100
AcDbEntity
  8
ZID5
  6
CONTINUOUS
 62
    7
370
   -1
100
AcDbLine
 10
698.3008611726
 20
569.810763587
 11
798.3008611726
 21
569.810763587
  0
LINE
  5
11F
100
AcDbEntity
  8
ZID5
  6
CONTINUOUS
 62
    7
370
   -1
100
AcDbLine
 10
693.8008611726
 20
569.810763587
 11
698.3008611726
 21
569.810763587
  0
LINE
  5
120
100
AcDbEntity
  8
ZID5
  6
CONTINUOUS
 62
    7
370
   -1
100
AcDbLine
 10
798.3008611726
 20
569.810763587
 11
802.8008611726
 21
569.810763587
  0
CIRCLE
  5
121
100
AcDbEntity
  8
ZID5
  6
CONTINUOUS
 62
    7
370
   -1
100
AcDbCircle
 10
752.8008611726
 20
515.810763587
 40
34.00000000000001
  0
LINE
  5
122
100
AcDbEntity
  8
ZID5
  6
CONTINUOUS
 62
    7
370
   -1
100
AcDbLine
 10
786.8008611726
 20
398.810763587
 11
786.8008611726
 21
340.810763587
  0
ARC
  5
123
100
AcDbEntity
  8
ZID5
  6
CONTINUOUS
 62
    7
370
   -1
100
AcDbCircle
 10
781.8008611726
 20
398.810763587
 40
5.000000000000004
100
AcDbArc
 50
0
 51
90
  0
LINE
  5
124
100
AcDbEntity
  8
ZID5
  6
CONTINUOUS
 62
    7
370
   -1
100
AcDbLine
 10
761.1905886299
 20
445.4806365681
 11
717.3008611726
 21
420.1408906059
  0
ARC
  5
125
100
AcDbEntity
  8
ZID5
  6
CONTINUOUS
 62
    7
370
   -1
100
AcDbCircle
 10
758.6905886299
 20
449.810763587
 40
4.999999999999982
100
AcDbArc
 50
300
 51
59.99999999999999
  0
LINE
  5
126
100
AcDbEntity
  8
ZID5
  6
CONTINUOUS
 62
    7
370
   -1
100
AcDbLine
 10
717.3008611726
 20
479.4806365681
 11
761.1905886299
 21
454.1408906059
  0
ARC
  5
127
100
AcDbEntity
  8
ZID5
  6
CONTINUOUS
 62
    7
370
   -1
100
AcDbCircle
 10
714.8008611726
 20
475.1505095492
 40
4.999999999999992
100
AcDbArc
 50
59.99999999999999
 51
180
  0
LINE
  5
128
100
AcDbEntity
  8
ZID5
  6
CONTINUOUS
 62
    7
370
   -1
100
AcDbLine
 10
723.8008611726
 20
403.810763587
 11
781.8008611726
 21
403.810763587
  0
ARC
  5
129
100
AcDbEntity
  8
ZID5
  6
CONTINUOUS
 62
    7
370
   -1
100
AcDbCircle
 10
723.8008611726
 20
398.810763587
 40
5.000000000000006
100
AcDbArc
 50
90
 51
180
  0
LINE
  5
12A
100
AcDbEntity
  8
ZID5
  6
CONTINUOUS
 62
    7
370
   -1
100
AcDbLine
 10
709.8008611726
 20
424.4710176249
 11
709.8008611726
 21
475.1505095492
  0
ARC
  5
12B
100
AcDbEntity
  8
ZID5
  6
CONTINUOUS
 62
    7
370
   -1
100
AcDbCircle
 10
714.8008611726
 20
424.4710176249
 40
5.000000000000006
100
AcDbArc
 50
180
 51
300
  0
LINE
  5
12C
100
AcDbEntity
  8
ZID5
  6
CONTINUOUS
 62
    7
370
   -1
100
AcDbLine
 10
718.8008611726
 20
340.810763587
 11
718.8008611726
 21
398.810763587
  0
ARC
  5
12D
100
AcDbEntity
  8
ZID5
  6
CONTINUOUS
 62
    7
370
   -1
100
AcDbCircle
 10
723.8008611726
 20
340.810763587
 40
5.000000000000004
100
AcDbArc
 50
180
 51
270
  0
LINE
  5
12E
100
AcDbEntity
  8
ZID5
  6
CONTINUOUS
 62
    7
370
   -1
100
AcDbLine
 10
781.8008611726
 20
335.810763587
 11
723.8008611726
 21
335.810763587
  0
ARC
  5
12F
100
AcDbEntity
  8
ZID5
  6
CONTINUOUS
 62
    7
370
   -1
100
AcDbCircle
 10
781.8008611726
 20
340.810763587
 40
5.000000000000034
100
AcDbArc
 50
270
 51
0
  0
LINE
  5
130
100
AcDbEntity
  8
ZID5
  6
CONTINUOUS
 62
    7
370
   -1
100
AcDbLine
 10
693.8008611726
 20
569.810763587
 11
693.8008611726
 21
315.810763587
  0
LINE
  5
131
100
AcDbEntity
  8
ZID5
  6
CONTINUOUS
 62
    7
370
   -1
100
AcDbLine
 10
802.8008611726
 20
315.810763587
 11
802.8008611726
 21
569.810763587
  0
CIRCLE
  5
132
100
AcDbEntity
  8
VRH
  6
CONTINUOUS
 62
    7
370
   -1
100
AcDbCircle
 10
184.8558537048
 20
144.3363638924
 40
130
  0
ARC
  5
133
100
AcDbEntity
  8
VRH
  6
CONTINUOUS
 62
    7
370
   -1
100
AcDbCircle
 10
224.3617856368
 20
189.8422735104
 40
4.999999999999994
100
AcDbArc
 50
151.8295407397
 51
207.294144489
  0
LINE
  5
134
100
AcDbEntity
  8
VRH
  6
CONTINUOUS
 62
    7
370
   -1
100
AcDbLine
 10
219.9540507661
 20
192.2027550946
 11
226.4717717314
 21
204.3733164614
  0
LINE
  5
135
100
AcDbEntity
  8
VRH
  6
CONTINUOUS
 62
    7
370
   -1
100
AcDbLine
 10
226.2464852353
 20
175.286090556
 11
219.9184651315
 21
187.5494798242
  0
ARC
  5
136
100
AcDbEntity
  8
VRH
  6
CONTINUOUS
 62
    7
370
   -1
100
AcDbCircle
 10
222.0640368608
 20
206.7337980456
 40
5.000000000000008
100
AcDbArc
 50
331.8295407397
 51
99.2895407397
  0
ARC
  5
137
100
AcDbEntity
  8
VRH
  6
CONTINUOUS
 62
    7
370
   -1
100
AcDbCircle
 10
221.8031647301
 20
172.9932968699
 40
5.000000000000005
100
AcDbArc
 50
259.8249369905
 51
27.294144489
  0
LINE
  5
138
100
AcDbEntity
  8
VRH
  6
CONTINUOUS
 62
    7
370
   -1
100
AcDbLine
 10
221.256918514
 20
211.6682240482
 11
207.6320666944
 21
209.4396228147
  0
LINE
  5
139
100
AcDbEntity
  8
VRH
  6
CONTINUOUS
 62
    7
370
   -1
100
AcDbLine
 10
207.3371153598
 20
170.5097569779
 11
220.9198828823
 21
168.0719339309
  0
ARC
  5
13A
100
AcDbEntity
  8
VRH
  6
CONTINUOUS
 62
    7
370
   -1
100
AcDbCircle
 10
206.8249483476
 20
214.3740488172
 40
5.000000000000011
100
AcDbArc
 50
223.8249369905
 51
279.2895407397
  0
ARC
  5
13B
100
AcDbEntity
  8
VRH
  6
CONTINUOUS
 62
    7
370
   -1
100
AcDbCircle
 10
206.453833512
 20
165.5883940389
 40
5.00000000000002
100
AcDbArc
 50
79.82493699050001
 51
135.2895407397
  0
LINE
  5
13C
100
AcDbEntity
  8
VRH
  6
CONTINUOUS
 62
    7
370
   -1
100
AcDbLine
 10
203.2176537652
 20
210.9117626079
 11
193.661525246
 21
220.8681233913
  0
LINE
  5
13D
100
AcDbEntity
  8
VRH
  6
CONTINUOUS
 62
    7
370
   -1
100
AcDbLine
 10
193.1884019591
 20
159.2952818329
 11
202.9004782202
 21
169.1060162713
  0
ARC
  5
13E
100
AcDbEntity
  8
VRH
  6
CONTINUOUS
 62
    7
370
   -1
100
AcDbCircle
 10
190.0542306636
 20
217.4058371819
 40
4.999999999999997
100
AcDbArc
 50
43.8249369905
 51
171.2918421874
  0
ARC
  5
13F
100
AcDbEntity
  8
VRH
  6
CONTINUOUS
 62
    7
370
   -1
100
AcDbCircle
 10
189.6350466673
 20
162.8129040654
 40
5.000000000000012
100
AcDbArc
 50
187.8249369905
 51
315.2895407397
  0
LINE
  5
140
100
AcDbEntity
  8
VRH
  6
CONTINUOUS
 62
    7
370
   -1
100
AcDbLine
 10
185.1118689628
 20
218.1628449877
 11
183.0221723086
 21
204.5196082452
  0
LINE
  5
141
100
AcDbEntity
  8
VRH
  6
CONTINUOUS
 62
    7
370
   -1
100
AcDbLine
 10
182.8026651306
 20
175.8044946737
 11
184.6816032733
 21
162.1321702388
  0
ARC
  5
142
100
AcDbEntity
  8
VRH
  6
CONTINUOUS
 62
    7
370
   -1
100
AcDbCircle
 10
178.0798106077
 20
205.2766160509
 40
4.999999999999998
100
AcDbArc
 50
295.827239292
 51
351.2918421874
  0
ARC
  5
143
100
AcDbEntity
  8
VRH
  6
CONTINUOUS
 62
    7
370
   -1
100
AcDbCircle
 10
177.8492217366
 20
175.1237608471
 40
4.999999999999984
100
AcDbArc
 50
7.8249369905
 51
63.28954073970001
  0
LINE
  5
144
100
AcDbEntity
  8
VRH
  6
CONTINUOUS
 62
    7
370
   -1
100
AcDbLine
 10
180.2581059853
 20
200.7760572803
 11
167.8335294337
 21
194.7624933985
  0
LINE
  5
145
100
AcDbEntity
  8
VRH
  6
CONTINUOUS
 62
    7
370
   -1
100
AcDbLine
 10
167.7644144375
 20
185.7954878733
 11
180.0966321104
 21
179.5902076017
  0
ARC
  5
146
100
AcDbEntity
  8
VRH
  6
CONTINUOUS
 62
    7
370
   -1
100
AcDbCircle
 10
170.0118248113
 20
190.2619346279
 40
5.00000000000002
100
AcDbArc
 50
115.827239292
 51
243.2895407397
  0
LINE
  5
147
100
AcDbEntity
  8
VRH
  6
CONTINUOUS
 62
    7
370
   -1
100
AcDbLine
 10
162.0363807803
 20
120.1646520075
 11
165.0063163412
 21
124.1870247853
  0
ARC
  5
148
100
AcDbEntity
  8
VRH
  6
CONTINUOUS
 62
    7
370
   -1
100
AcDbCircle
 10
166.0587535581
 20
117.1947164465
 40
5.000000000000027
100
AcDbArc
 50
143.5595407397
 51
233.5595407397
  0
ARC
  5
149
100
AcDbEntity
  8
VRH
  6
CONTINUOUS
 62
    7
370
   -1
100
AcDbCircle
 10
155.3526216744
 20
131.3148701316
 40
12.00000000000001
100
AcDbArc
 50
323.5595407397
 51
143.5595407397
  0
LINE
  5
14A
100
AcDbEntity
  8
VRH
  6
CONTINUOUS
 62
    7
370
   -1
100
AcDbLine
 10
167.111190775
 20
110.2024081078
 11
163.0888179971
 21
113.1723436687
  0
LINE
  5
14B
100
AcDbEntity
  8
VRH
  6
CONTINUOUS
 62
    7
370
   -1
100
AcDbLine
 10
145.6989270076
 20
138.4427154779
 11
142.7289914467
 21
134.4203427
  0
ARC
  5
14C
100
AcDbEntity
  8
VRH
  6
CONTINUOUS
 62
    7
370
   -1
100
AcDbCircle
 10
159.9833454287
 20
100.548713441
 40
11.99999999999999
100
AcDbArc
 50
233.5595407397
 51
53.5595407397
  0
ARC
  5
14D
100
AcDbEntity
  8
VRH
  6
CONTINUOUS
 62
    7
370
   -1
100
AcDbCircle
 10
138.7066186689
 20
137.390278261
 40
4.999999999999982
100
AcDbArc
 50
233.5595407397
 51
323.5595407397
  0
LINE
  5
14E
100
AcDbEntity
  8
VRH
  6
CONTINUOUS
 62
    7
370
   -1
100
AcDbLine
 10
148.8331273046
 20
93.86495433509999
 11
152.8555000824
 21
90.8950187742
  0
LINE
  5
14F
100
AcDbEntity
  8
VRH
  6
CONTINUOUS
 62
    7
370
   -1
100
AcDbLine
 10
135.7366831079
 20
133.3679054832
 11
131.7143103301
 21
136.3378410441
  0
ARC
  5
150
100
AcDbEntity
  8
VRH
  6
CONTINUOUS
 62
    7
370
   -1
100
AcDbCircle
 10
145.8631917436
 20
89.84258155729999
 40
4.999999999999967
100
AcDbArc
 50
53.5595407397
 51
143.5595407397
  0
ARC
  5
151
100
AcDbEntity
  8
VRH
  6
CONTINUOUS
 62
    7
370
   -1
100
AcDbCircle
 10
124.5864649838
 20
126.6841463773
 40
12
100
AcDbArc
 50
53.5595407397
 51
233.5595407397
  0
LINE
  5
152
100
AcDbEntity
  8
VRH
  6
CONTINUOUS
 62
    7
370
   -1
100
AcDbLine
 10
138.8708834049
 20
88.7901443404
 11
141.8408189658
 21
92.81251711829999
  0
LINE
  5
153
100
AcDbEntity
  8
VRH
  6
CONTINUOUS
 62
    7
370
   -1
100
AcDbLine
 10
117.4586196375
 20
117.0304517105
 11
121.4809924154
 21
114.0605161496
  0
ARC
  5
154
100
AcDbEntity
  8
VRH
  6
CONTINUOUS
 62
    7
370
   -1
100
AcDbCircle
 10
129.2171887381
 20
95.9179896867
 40
11.99999999999999
100
AcDbArc
 50
143.5595407397
 51
323.5595407397
  0
ARC
  5
155
100
AcDbEntity
  8
VRH
  6
CONTINUOUS
 62
    7
370
   -1
100
AcDbCircle
 10
118.5110568544
 20
110.0381433718
 40
4.999999999999938
100
AcDbArc
 50
323.5595407397
 51
53.5595407397
  0
LINE
  5
156
100
AcDbEntity
  8
VRH
  6
CONTINUOUS
 62
    7
370
   -1
100
AcDbLine
 10
122.5334296322
 20
107.0682078108
 11
119.5634940713
 21
103.045835033
  0
ARC
  5
157
100
AcDbEntity
  8
VRH
  6
CONTINUOUS
 62
    7
370
   -1
100
AcDbCircle
 10
252.8758026127
 20
115.2453592593
 40
17.00000000000001
100
AcDbArc
 50
260.0848927563
 51
89.76706680869999
  0
LINE
  5
158
100
AcDbEntity
  8
VRH
  6
CONTINUOUS
 62
    7
370
   -1
100
AcDbLine
 10
252.9449150915
 20
132.2452187725
 11
200.9453448161
 21
132.4566216486
  0
ARC
  5
159
100
AcDbEntity
  8
VRH
  6
CONTINUOUS
 62
    7
370
   -1
100
AcDbCircle
 10
249.6042146679
 20
96.5291440351
 40
1.999999999999973
100
AcDbArc
 50
80.08489275629999
 51
207.0341887231
  0
LINE
  5
15A
100
AcDbEntity
  8
VRH
  6
CONTINUOUS
 62
    7
370
   -1
100
AcDbLine
 10
200.9453448161
 20
132.4566216486
 11
216.4539032998
 21
82.823118712
  0
ARC
  5
15B
100
AcDbEntity
  8
VRH
  6
CONTINUOUS
 62
    7
370
   -1
100
AcDbCircle
 10
232.6802407983
 20
87.8932243701
 40
17.00000000000002
100
AcDbArc
 50
197.3520146707
 51
27.0341887231
  0
LINE
  5
15C
100
AcDbEntity
  8
VRH
  6
CONTINUOUS
 62
    7
370
   -1
100
AcDbLine
 10
199.5834713179
 20
133.4621665733
 11
200.9453448161
 21
132.4566216486
  0
CIRCLE
  5
15D
100
AcDbEntity
  8
CIRCLE
  6
CONTINUOUS
 62
    7
370
   -1
100
AcDbCircle
 10
752.8008611726
 20
515.810763587
 40
32.50000000000001
  0
LINE
  5
15E
100
AcDbEntity
  8
DETELINA
  6
CONTINUOUS
 62
    7
370
   -1
100
AcDbLine
 10
122.3719730836
 20
115.2672279829
 11
118.3496003058
 21
118.2371635439
  0
ARC
  5
15F
100
AcDbEntity
  8
DETELINA
  6
CONTINUOUS
 62
    7
370
   -1
100
AcDbCircle
 10
124.5864649838
 20
126.6841463773
 40
10.49999999999996
100
AcDbArc
 50
53.5595407397
 51
233.5595407397
  0
ARC
  5
160
100
AcDbEntity
  8
DETELINA
  6
CONTINUOUS
 62
    7
370
   -1
100
AcDbCircle
 10
118.5110568544
 20
110.0381433718
 40
6.500000000000009
100
AcDbArc
 50
323.5595407397
 51
53.5595407397
  0
LINE
  5
161
100
AcDbEntity
  8
DETELINA
  6
CONTINUOUS
 62
    7
370
   -1
100
AcDbLine
 10
130.8233296618
 20
135.1311292108
 11
134.8457024396
 21
132.1611936498
  0
LINE
  5
162
100
AcDbEntity
  8
DETELINA
  6
CONTINUOUS
 62
    7
370
   -1
100
AcDbLine
 10
120.7702059046
 20
102.1548543647
 11
123.7401414656
 21
106.1772271425
  0
ARC
  5
163
100
AcDbEntity
  8
DETELINA
  6
CONTINUOUS
 62
    7
370
   -1
100
AcDbCircle
 10
138.7066186689
 20
137.390278261
 40
6.499999999999983
100
AcDbArc
 50
233.5595407397
 51
323.5595407397
  0
ARC
  5
164
100
AcDbEntity
  8
DETELINA
  6
CONTINUOUS
 62
    7
370
   -1
100
AcDbCircle
 10
129.2171887381
 20
95.9179896867
 40
10.50000000000002
100
AcDbArc
 50
143.5595407397
 51
323.5595407397
  0
LINE
  5
165
100
AcDbEntity
  8
DETELINA
  6
CONTINUOUS
 62
    7
370
   -1
100
AcDbLine
 10
143.93570328
 20
133.5293620318
 11
146.905638841
 21
137.5517348096
  0
LINE
  5
166
100
AcDbEntity
  8
DETELINA
  6
CONTINUOUS
 62
    7
370
   -1
100
AcDbLine
 10
140.6341071325
 20
93.70349778649999
 11
137.6641715715
 21
89.68112500869999
  0
ARC
  5
167
100
AcDbEntity
  8
DETELINA
  6
CONTINUOUS
 62
    7
370
   -1
100
AcDbCircle
 10
155.3526216744
 20
131.3148701316
 40
10.49999999999998
100
AcDbArc
 50
323.5595407397
 51
143.5595407397
  0
ARC
  5
168
100
AcDbEntity
  8
DETELINA
  6
CONTINUOUS
 62
    7
370
   -1
100
AcDbCircle
 10
145.8631917436
 20
89.84258155729999
 40
6.499999999999998
100
AcDbArc
 50
53.5595407397
 51
143.5595407397
  0
LINE
  5
169
100
AcDbEntity
  8
DETELINA
  6
CONTINUOUS
 62
    7
370
   -1
100
AcDbLine
 10
163.7996045079
 20
125.0780054536
 11
160.8296689469
 21
121.0556326758
  0
LINE
  5
16A
100
AcDbEntity
  8
DETELINA
  6
CONTINUOUS
 62
    7
370
   -1
100
AcDbLine
 10
153.7464807507
 20
92.1017306075
 11
149.7241079729
 21
95.0716661685
  0
ARC
  5
16B
100
AcDbEntity
  8
DETELINA
  6
CONTINUOUS
 62
    7
370
   -1
100
AcDbCircle
 10
166.0587535581
 20
117.1947164465
 40
6.49999999999999
100
AcDbArc
 50
143.5595407397
 51
233.5595407397
  0
ARC
  5
16C
100
AcDbEntity
  8
DETELINA
  6
CONTINUOUS
 62
    7
370
   -1
100
AcDbCircle
 10
159.9833454287
 20
100.548713441
 40
10.49999999999995
100
AcDbArc
 50
233.5595407397
 51
53.5595407397
  0
LINE
  5
16D
100
AcDbEntity
  8
DETELINA
  6
CONTINUOUS
 62
    7
370
   -1
100
AcDbLine
 10
162.1978373289
 20
111.9656318354
 11
166.2202101067
 21
108.9956962744
  0
LINE
  5
16E
100
AcDbEntity
  8
IZBOCINA
  6
CONTINUOUS
 62
    7
370
   -1
100
AcDbLine
 10
410.9188287004
 20
474.8035244367
 11
410.8008539322
 21
416.80364442
  0
ARC
  5
16F
100
AcDbEntity
  8
IZBOCINA
  6
CONTINUOUS
 62
    7
370
   -1
100
AcDbCircle
 10
407.4188359408
 20
474.8106436037
 40
3.499999999999966
100
AcDbArc
 50
359.8834575695
 51
89.8834575695
  0
ARC
  5
170
100
AcDbEntity
  8
IZBOCINA
  6
CONTINUOUS
 62
    7
370
   -1
100
AcDbCircle
 10
407.3008611726
 20
416.810763587
 40
3.500000000000024
100
AcDbArc
 50
269.8834575695
 51
359.8834575695
  0
LINE
  5
171
100
AcDbEntity
  8
IZBOCINA
  6
CONTINUOUS
 62
    7
370
   -1
100
AcDbLine
 10
389.443238816
 20
478.3472141423
 11
407.4259551078
 21
478.3106363634
  0
LINE
  5
172
100
AcDbEntity
  8
IZBOCINA
  6
CONTINUOUS
 62
    7
370
   -1
100
AcDbLine
 10
407.2937420055
 20
413.3107708274
 11
389.3110257137
 21
413.3473486063
  0
ARC
  5
173
100
AcDbEntity
  8
IZBOCINA
  6
CONTINUOUS
 62
    7
370
   -1
100
AcDbCircle
 10
389.4361196489
 20
474.8472213826
 40
3.500000000000032
100
AcDbArc
 50
89.8834575695
 51
134.8664153973
  0
ARC
  5
174
100
AcDbEntity
  8
IZBOCINA
  6
CONTINUOUS
 62
    7
370
   -1
100
AcDbCircle
 10
389.3181448807
 20
416.8473413659
 40
3.499999999997856
100
AcDbArc
 50
224.9004997417
 51
269.8834575695
  0
ARC
  5
175
100
AcDbEntity
  8
IZBOCINA
  6
CONTINUOUS
 62
    7
370
   -1
100
AcDbCircle
 10
418.3598258012
 20
445.7883290704
 40
44.49999999999994
100
AcDbArc
 50
134.8664153973
 51
224.9004997417
  0
ARC
  5
176
100
AcDbEntity
  8
KRISKA_CIRCLE
  6
CONTINUOUS
 62
    7
370
   -1
100
AcDbCircle
 10
89.30086117259999
 20
351.810763587
 40
3.499999999999948
100
AcDbArc
 50
180
 51
270
  0
LINE
  5
177
100
AcDbEntity
  8
KRISKA_CIRCLE
  6
CONTINUOUS
 62
    7
370
   -1
100
AcDbLine
 10
85.80086117259999
 20
351.810763587
 11
85.80086117259999
 21
408.6088218089
  0
LINE
  5
178
100
AcDbEntity
  8
KRISKA_CIRCLE
  6
CONTINUOUS
 62
    7
370
   -1
100
AcDbLine
 10
146.0989193945
 20
348.310763587
 11
89.30086117259999
 21
348.310763587
  0
ARC
  5
179
100
AcDbEntity
  8
KRISKA_CIRCLE
  6
CONTINUOUS
 62
    7
370
   -1
100
AcDbCircle
 10
89.30086117259999
 20
408.6088218089
 40
3.500000000000048
100
AcDbArc
 50
85.3743494205
 51
180
  0
ARC
  5
17A
100
AcDbEntity
  8
KRISKA_CIRCLE
  6
CONTINUOUS
 62
    7
370
   -1
100
AcDbCircle
 10
146.0989193945
 20
351.810763587
 40
3.500000000000003
100
AcDbArc
 50
270
 51
4.6256505795
  0
ARC
  5
17B
100
AcDbEntity
  8
KRISKA_CIRCLE
  6
CONTINUOUS
 62
    7
370
   -1
100
AcDbCircle
 10
84.30086117259999
 20
346.810763587
 40
65.50000000000004
100
AcDbArc
 50
4.6256505795
 51
85.3743494205
  0
ARC
  5
17C
100
AcDbEntity
  8
KRST
  6
CONTINUOUS
 62
    7
370
   -1
100
AcDbCircle
 10
483.3008611726
 20
544.810763587
 40
3.500000000000014
100
AcDbArc
 50
90
 51
180
  0
LINE
  5
17D
100
AcDbEntity
  8
KRST
  6
CONTINUOUS
 62
    7
370
   -1
100
AcDbLine
 10
479.8008611726
 20
535.810763587
 11
479.8008611726
 21
544.810763587
  0
LINE
  5
17E
100
AcDbEntity
  8
KRST
  6
CONTINUOUS
 62
    7
370
   -1
100
AcDbLine
 10
483.3008611726
 20
548.310763587
 11
501.3008611726
 21
548.310763587
  0
ARC
  5
17F
100
AcDbEntity
  8
KRST
  6
CONTINUOUS
 62
    7
370
   -1
100
AcDbCircle
 10
473.3008611726
 20
535.810763587
 40
6.500000000000061
100
AcDbArc
 50
270
 51
0
  0
ARC
  5
180
100
AcDbEntity
  8
KRST
  6
CONTINUOUS
 62
    7
370
   -1
100
AcDbCircle
 10
501.3008611726
 20
544.810763587
 40
3.500000000000003
100
AcDbArc
 50
0
 51
90
  0
LINE
  5
181
100
AcDbEntity
  8
KRST
  6
CONTINUOUS
 62
    7
370
   -1
100
AcDbLine
 10
464.3008611726
 20
529.310763587
 11
473.3008611726
 21
529.310763587
  0
LINE
  5
182
100
AcDbEntity
  8
KRST
  6
CONTINUOUS
 62
    7
370
   -1
100
AcDbLine
 10
504.8008611726
 20
544.810763587
 11
504.8008611726
 21
535.810763587
  0
ARC
  5
183
100
AcDbEntity
  8
KRST
  6
CONTINUOUS
 62
    7
370
   -1
100
AcDbCircle
 10
464.3008611726
 20
525.810763587
 40
3.500000000000014
100
AcDbArc
 50
90
 51
180
  0
ARC
  5
184
100
AcDbEntity
  8
KRST
  6
CONTINUOUS
 62
    7
370
   -1
100
AcDbCircle
 10
511.3008611726
 20
535.810763587
 40
6.500000000000027
100
AcDbArc
 50
180
 51
270
  0
LINE
  5
185
100
AcDbEntity
  8
KRST
  6
CONTINUOUS
 62
    7
370
   -1
100
AcDbLine
 10
460.8008611726
 20
507.810763587
 11
460.8008611726
 21
525.810763587
  0
LINE
  5
186
100
AcDbEntity
  8
KRST
  6
CONTINUOUS
 62
    7
370
   -1
100
AcDbLine
 10
511.3008611726
 20
529.310763587
 11
520.3008611726
 21
529.310763587
  0
ARC
  5
187
100
AcDbEntity
  8
KRST
  6
CONTINUOUS
 62
    7
370
   -1
100
AcDbCircle
 10
464.3008611726
 20
507.810763587
 40
3.500000000000003
100
AcDbArc
 50
180
 51
270
  0
ARC
  5
188
100
AcDbEntity
  8
KRST
  6
CONTINUOUS
 62
    7
370
   -1
100
AcDbCircle
 10
520.3008611726
 20
525.810763587
 40
3.500000000000003
100
AcDbArc
 50
0
 51
90
  0
LINE
  5
189
100
AcDbEntity
  8
KRST
  6
CONTINUOUS
 62
    7
370
   -1
100
AcDbLine
 10
473.3008611726
 20
504.310763587
 11
464.3008611726
 21
504.310763587
  0
LINE
  5
18A
100
AcDbEntity
  8
KRST
  6
CONTINUOUS
 62
    7
370
   -1
100
AcDbLine
 10
523.8008611726
 20
525.810763587
 11
523.8008611726
 21
507.810763587
  0
ARC
  5
18B
100
AcDbEntity
  8
KRST
  6
CONTINUOUS
 62
    7
370
   -1
100
AcDbCircle
 10
473.3008611726
 20
497.810763587
 40
6.500000000000016
100
AcDbArc
 50
0
 51
90
  0
ARC
  5
18C
100
AcDbEntity
  8
KRST
  6
CONTINUOUS
 62
    7
370
   -1
100
AcDbCircle
 10
520.3008611726
 20
507.810763587
 40
3.500000000000014
100
AcDbArc
 50
270
 51
0
  0
LINE
  5
18D
100
AcDbEntity
  8
KRST
  6
CONTINUOUS
 62
    7
370
   -1
100
AcDbLine
 10
479.8008611726
 20
488.810763587
 11
479.8008611726
 21
497.810763587
  0
LINE
  5
18E
100
AcDbEntity
  8
KRST
  6
CONTINUOUS
 62
    7
370
   -1
100
AcDbLine
 10
520.3008611726
 20
504.310763587
 11
511.3008611726
 21
504.310763587
  0
ARC
  5
18F
100
AcDbEntity
  8
KRST
  6
CONTINUOUS
 62
    7
370
   -1
100
AcDbCircle
 10
483.3008611726
 20
488.810763587
 40
3.500000000000003
100
AcDbArc
 50
180
 51
270
  0
ARC
  5
190
100
AcDbEntity
  8
KRST
  6
CONTINUOUS
 62
    7
370
   -1
100
AcDbCircle
 10
511.3008611726
 20
497.810763587
 40
6.500000000000005
100
AcDbArc
 50
90
 51
180
  0
LINE
  5
191
100
AcDbEntity
  8
KRST
  6
CONTINUOUS
 62
    7
370
   -1
100
AcDbLine
 10
501.3008611726
 20
485.310763587
 11
483.3008611726
 21
485.310763587
  0
LINE
  5
192
100
AcDbEntity
  8
KRST
  6
CONTINUOUS
 62
    7
370
   -1
100
AcDbLine
 10
504.8008611726
 20
497.810763587
 11
504.8008611726
 21
488.810763587
  0
ARC
  5
193
100
AcDbEntity
  8
KRST
  6
CONTINUOUS
 62
    7
370
   -1
100
AcDbCircle
 10
501.3008611726
 20
488.810763587
 40
3.499999999999966
100
AcDbArc
 50
270
 51
0
  0
ARC
  5
194
100
AcDbEntity
  8
L
  6
CONTINUOUS
 62
    7
370
   -1
100
AcDbCircle
 10
496.3008611726
 20
378.810763587
 40
6.50000000000002
100
AcDbArc
 50
180
 51
270
  0
LINE
  5
195
100
AcDbEntity
  8
L
  6
CONTINUOUS
 62
    7
370
   -1
100
AcDbLine
 10
489.8008611726
 20
402.810763587
 11
489.8008611726
 21
378.810763587
  0
LINE
  5
196
100
AcDbEntity
  8
L
  6
CONTINUOUS
 62
    7
370
   -1
100
AcDbLine
 10
496.3008611726
 20
372.310763587
 11
520.3008611726
 21
372.310763587
  0
ARC
  5
197
100
AcDbEntity
  8
L
  6
CONTINUOUS
 62
    7
370
   -1
100
AcDbCircle
 10
486.3008611726
 20
402.810763587
 40
3.500000000000003
100
AcDbArc
 50
0
 51
90
  0
ARC
  5
198
100
AcDbEntity
  8
L
  6
CONTINUOUS
 62
    7
370
   -1
100
AcDbCircle
 10
520.3008611726
 20
368.810763587
 40
3.500000000000059
100
AcDbArc
 50
0
 51
90
  0
LINE
  5
199
100
AcDbEntity
  8
L
  6
CONTINUOUS
 62
    7
370
   -1
100
AcDbLine
 10
464.3008611726
 20
406.310763587
 11
486.3008611726
 21
406.310763587
  0
LINE
  5
19A
100
AcDbEntity
  8
L
  6
CONTINUOUS
 62
    7
370
   -1
100
AcDbLine
 10
523.8008611726
 20
368.810763587
 11
523.8008611726
 21
346.810763587
  0
ARC
  5
19B
100
AcDbEntity
  8
L
  6
CONTINUOUS
 62
    7
370
   -1
100
AcDbCircle
 10
464.3008611726
 20
402.810763587
 40
3.500000000000007
100
AcDbArc
 50
90
 51
180
  0
ARC
  5
19C
100
AcDbEntity
  8
L
  6
CONTINUOUS
 62
    7
370
   -1
100
AcDbCircle
 10
520.3008611726
 20
346.810763587
 40
3.500000000000007
100
AcDbArc
 50
270
 51
0
  0
LINE
  5
19D
100
AcDbEntity
  8
L
  6
CONTINUOUS
 62
    7
370
   -1
100
AcDbLine
 10
460.8008611726
 20
346.810763587
 11
460.8008611726
 21
402.810763587
  0
LINE
  5
19E
100
AcDbEntity
  8
L
  6
CONTINUOUS
 62
    7
370
   -1
100
AcDbLine
 10
520.3008611726
 20
343.310763587
 11
464.3008611726
 21
343.310763587
  0
ARC
  5
19F
100
AcDbEntity
  8
L
  6
CONTINUOUS
 62
    7
370
   -1
100
AcDbCircle
 10
464.3008611726
 20
346.810763587
 40
3.500000000000003
100
AcDbArc
 50
180
 51
270
  0
ARC
  5
1A0
100
AcDbEntity
  8
PACKMAN
  6
CONTINUOUS
 62
    7
370
   -1
100
AcDbCircle
 10
249.3008611726
 20
509.810763587
 40
6.500000000000005
100
AcDbArc
 50
90
 51
180
  0
LINE
  5
1A1
100
AcDbEntity
  8
PACKMAN
  6
CONTINUOUS
 62
    7
370
   -1
100
AcDbLine
 10
242.8008611726
 20
509.810763587
 11
242.8008611726
 21
485.2303646715
  0
LINE
  5
1A2
100
AcDbEntity
  8
PACKMAN
  6
CONTINUOUS
 62
    7
370
   -1
100
AcDbLine
 10
273.8812600881
 20
516.310763587
 11
249.3008611726
 21
516.310763587
  0
ARC
  5
1A3
100
AcDbEntity
  8
PACKMAN
  6
CONTINUOUS
 62
    7
370
   -1
100
AcDbCircle
 10
239.3008611726
 20
485.2303646715
 40
3.500000000000007
100
AcDbArc
 50
260.4059317731
 51
0
  0
ARC
  5
1A4
100
AcDbEntity
  8
PACKMAN
  6
CONTINUOUS
 62
    7
370
   -1
100
AcDbCircle
 10
273.8812600881
 20
519.810763587
 40
3.500000000000011
100
AcDbArc
 50
270
 51
9.594068226899999
  0
ARC
  5
1A5
100
AcDbEntity
  8
PACKMAN
  6
CONTINUOUS
 62
    7
370
   -1
100
AcDbCircle
 10
244.3008611726
 20
514.810763587
 40
33.49999999999999
100
AcDbArc
 50
9.594068226899999
 51
260.4059317731
  0
ARC
  5
1A6
100
AcDbEntity
  8
PETOSTRAN
  6
CONTINUOUS
 62
    7
370
   -1
100
AcDbCircle
 10
621.4131479956
 20
404.338675811
 40
3.499999999997684
100
AcDbArc
 50
72
 51
144
  0
LINE
  5
1A7
100
AcDbEntity
  8
PETOSTRAN
  6
CONTINUOUS
 62
    7
370
   -1
100
AcDbLine
 10
596.4017619933001
 20
375.86801197
 11
618.5815885152
 21
406.395924194
  0
LINE
  5
1A8
100
AcDbEntity
  8
PETOSTRAN
  6
CONTINUOUS
 62
    7
370
   -1
100
AcDbLine
 10
622.4947074759
 20
407.667373618
 11
658.3824206529
 21
396.006748754
  0
ARC
  5
1A9
100
AcDbEntity
  8
PETOSTRAN
  6
CONTINUOUS
 62
    7
370
   -1
100
AcDbCircle
 10
599.2333214736
 20
373.810763587
 40
3.499999999997728
100
AcDbArc
 50
144
 51
216
  0
ARC
  5
1AA
100
AcDbEntity
  8
PETOSTRAN
  6
CONTINUOUS
 62
    7
370
   -1
100
AcDbCircle
 10
657.3008611726
 20
392.678050947
 40
3.49999999999771
100
AcDbArc
 50
0
 51
72
  0
LINE
  5
1AB
100
AcDbEntity
  8
PETOSTRAN
  6
CONTINUOUS
 62
    7
370
   -1
100
AcDbLine
 10
618.5815885152
 20
341.2256029801
 11
596.4017619933001
 21
371.753515204
  0
LINE
  5
1AC
100
AcDbEntity
  8
PETOSTRAN
  6
CONTINUOUS
 62
    7
370
   -1
100
AcDbLine
 10
660.8008611726
 20
392.678050947
 11
660.8008611726
 21
354.943476227
  0
ARC
  5
1AD
100
AcDbEntity
  8
PETOSTRAN
  6
CONTINUOUS
 62
    7
370
   -1
100
AcDbCircle
 10
621.4131479956
 20
343.2828513631
 40
3.499999999997702
100
AcDbArc
 50
216
 51
288
  0
ARC
  5
1AE
100
AcDbEntity
  8
PETOSTRAN
  6
CONTINUOUS
 62
    7
370
   -1
100
AcDbCircle
 10
657.3008611726
 20
354.943476227
 40
3.4999999999977
100
AcDbArc
 50
288
 51
0
  0
LINE
  5
1AF
100
AcDbEntity
  8
PETOSTRAN
  6
CONTINUOUS
 62
    7
370
   -1
100
AcDbLine
 10
658.3824206529
 20
351.61477842
 11
622.4947074759
 21
339.954153556
  0
ARC
  5
1B0
100
AcDbEntity
  8
POLUKRUG
  6
CONTINUOUS
 62
    7
370
   -1
100
AcDbCircle
 10
584.3008611726
 20
445.810763587
 40
34.50000000000002
100
AcDbArc
 50
276.4827010511
 51
83.51729894890001
  0
ARC
  5
1B1
100
AcDbEntity
  8
POLUKRUG
  6
CONTINUOUS
 62
    7
370
   -1
100
AcDbCircle
 10
587.8008611726
 20
476.6125492495
 40
3.500000000000028
100
AcDbArc
 50
83.51729894890001
 51
162.68670579
  0
ARC
  5
1B2
100
AcDbEntity
  8
POLUKRUG
  6
CONTINUOUS
 62
    7
370
   -1
100
AcDbCircle
 10
587.8008611726
 20
415.0089779245
 40
3.5
100
AcDbArc
 50
197.3132641862
 51
276.4827010511
  0
LINE
  5
1B3
100
AcDbEntity
  8
PRAVOKRUG
  6
CONTINUOUS
 62
    7
370
   -1
100
AcDbLine
 10
246.8008611726
 20
429.310763587
 11
246.8008611726
 21
454.310763587
  0
ARC
  5
1B4
100
AcDbEntity
  8
PRAVOKRUG
  6
CONTINUOUS
 62
    7
370
   -1
100
AcDbCircle
 10
268.3008611726
 20
454.310763587
 40
21.49999999999999
100
AcDbArc
 50
0
 51
180
  0
ARC
  5
1B5
100
AcDbEntity
  8
PRAVOKRUG
  6
CONTINUOUS
 62
    7
370
   -1
100
AcDbCircle
 10
268.3008611726
 20
429.310763587
 40
21.49999999999999
100
AcDbArc
 50
180
 51
0
  0
LINE
  5
1B6
100
AcDbEntity
  8
PRAVOKRUG
  6
CONTINUOUS
 62
    7
370
   -1
100
AcDbLine
 10
289.8008611726
 20
454.310763587
 11
289.8008611726
 21
429.310763587
  0
LINE
  5
1B7
100
AcDbEntity
  8
ROMB
  6
CONTINUOUS
 62
    7
370
   -1
100
AcDbLine
 10
655.5508611726
 20
467.4399287116
 11
615.5508611726
 21
490.5339394792
  0
ARC
  5
1B8
100
AcDbEntity
  8
ROMB
  6
CONTINUOUS
 62
    7
370
   -1
100
AcDbCircle
 10
657.3008611726
 20
470.4710176249
 40
3.500000000008221
100
AcDbArc
 50
240
 51
0
  0
ARC
  5
1B9
100
AcDbEntity
  8
ROMB
  6
CONTINUOUS
 62
    7
370
   -1
100
AcDbCircle
 10
617.3008611726
 20
493.5650283924
 40
3.500000000008225
100
AcDbArc
 50
180
 51
240
  0
LINE
  5
1BA
100
AcDbEntity
  8
ROMB
  6
CONTINUOUS
 62
    7
370
   -1
100
AcDbLine
 10
660.8008611726
 20
518.9240122410999
 11
660.8008611726
 21
470.4710176249
  0
LINE
  5
1BB
100
AcDbEntity
  8
ROMB
  6
CONTINUOUS
 62
    7
370
   -1
100
AcDbLine
 10
613.8008611726
 20
493.5650283924
 11
613.8008611726
 21
542.0180230086
  0
ARC
  5
1BC
100
AcDbEntity
  8
ROMB
  6
CONTINUOUS
 62
    7
370
   -1
100
AcDbCircle
 10
657.3008611726
 20
518.9240122410999
 40
3.500000000008232
100
AcDbArc
 50
0
 51
59.99999999999999
  0
ARC
  5
1BD
100
AcDbEntity
  8
ROMB
  6
CONTINUOUS
 62
    7
370
   -1
100
AcDbCircle
 10
617.3008611726
 20
542.0180230086
 40
3.500000000008235
100
AcDbArc
 50
59.99999999999999
 51
180
  0
LINE
  5
1BE
100
AcDbEntity
  8
ROMB
  6
CONTINUOUS
 62
    7
370
   -1
100
AcDbLine
 10
619.0508611726
 20
545.0491119219
 11
659.0508611726
 21
521.9551011543
  0
LINE
  5
1BF
100
AcDbEntity
  8
SESTOSTRAN
  6
CONTINUOUS
 62
    7
370
   -1
100
AcDbLine
 10
337.5508611726
 20
532.4551011543
 11
362.861750305
 21
547.0683498083999
  0
ARC
  5
1C0
100
AcDbEntity
  8
SESTOSTRAN
  6
CONTINUOUS
 62
    7
370
   -1
100
AcDbCircle
 10
339.3008611726
 20
529.4240122410999
 40
3.500000000000006
100
AcDbArc
 50
120
 51
180
  0
ARC
  5
1C1
100
AcDbEntity
  8
SESTOSTRAN
  6
CONTINUOUS
 62
    7
370
   -1
100
AcDbCircle
 10
364.611750305
 20
544.0372608951
 40
3.500000000000049
100
AcDbArc
 50
59.99999999999999
 51
120
  0
LINE
  5
1C2
100
AcDbEntity
  8
SESTOSTRAN
  6
CONTINUOUS
 62
    7
370
   -1
100
AcDbLine
 10
335.8008611726
 20
500.197514933
 11
335.8008611726
 21
529.4240122410999
  0
LINE
  5
1C3
100
AcDbEntity
  8
SESTOSTRAN
  6
CONTINUOUS
 62
    7
370
   -1
100
AcDbLine
 10
366.361750305
 20
547.0683498083999
 11
391.6726394375
 21
532.4551011543
  0
ARC
  5
1C4
100
AcDbEntity
  8
SESTOSTRAN
  6
CONTINUOUS
 62
    7
370
   -1
100
AcDbCircle
 10
339.3008611726
 20
500.197514933
 40
3.500000000000007
100
AcDbArc
 50
180
 51
240
  0
ARC
  5
1C5
100
AcDbEntity
  8
SESTOSTRAN
  6
CONTINUOUS
 62
    7
370
   -1
100
AcDbCircle
 10
389.9226394375
 20
529.4240122410999
 40
3.50000000000003
100
AcDbArc
 50
0
 51
59.99999999999999
  0
LINE
  5
1C6
100
AcDbEntity
  8
SESTOSTRAN
  6
CONTINUOUS
 62
    7
370
   -1
100
AcDbLine
 10
362.861750305
 20
482.5531773657
 11
337.5508611726
 21
497.1664260197
  0
LINE
  5
1C7
100
AcDbEntity
  8
SESTOSTRAN
  6
CONTINUOUS
 62
    7
370
   -1
100
AcDbLine
 10
393.4226394375
 20
529.4240122410999
 11
393.4226394375
 21
500.197514933
  0
ARC
  5
1C8
100
AcDbEntity
  8
SESTOSTRAN
  6
CONTINUOUS
 62
    7
370
   -1
100
AcDbCircle
 10
364.611750305
 20
485.5842662789
 40
3.500000000000024
100
AcDbArc
 50
240
 51
300
  0
ARC
  5
1C9
100
AcDbEntity
  8
SESTOSTRAN
  6
CONTINUOUS
 62
    7
370
   -1
100
AcDbCircle
 10
389.9226394375
 20
500.197514933
 40
3.500000000000004
100
AcDbArc
 50
300
 51
360
  0
LINE
  5
1CA
100
AcDbEntity
  8
SESTOSTRAN
  6
CONTINUOUS
 62
    7
370
   -1
100
AcDbLine
 10
391.6726394375
 20
497.1664260197
 11
366.361750305
 21
482.5531773657
  0
LINE
  5
1CB
100
AcDbEntity
  8
SQUARE
  6
CONTINUOUS
 62
    7
370
   -1
100
AcDbLine
 10
781.8008611726
 20
337.310763587
 11
723.8008611726
 21
337.310763587
  0
ARC
  5
1CC
100
AcDbEntity
  8
SQUARE
  6
CONTINUOUS
 62
    7
370
   -1
100
AcDbCircle
 10
781.8008611726
 20
340.810763587
 40
3.5
100
AcDbArc
 50
270
 51
0
  0
ARC
  5
1CD
100
AcDbEntity
  8
SQUARE
  6
CONTINUOUS
 62
    7
370
   -1
100
AcDbCircle
 10
723.8008611726
 20
340.810763587
 40
3.500000000000003
100
AcDbArc
 50
180
 51
270
  0
LINE
  5
1CE
100
AcDbEntity
  8
SQUARE
  6
CONTINUOUS
 62
    7
370
   -1
100
AcDbLine
 10
785.3008611726
 20
398.810763587
 11
785.3008611726
 21
340.810763587
  0
LINE
  5
1CF
100
AcDbEntity
  8
SQUARE
  6
CONTINUOUS
 62
    7
370
   -1
100
AcDbLine
 10
720.3008611726
 20
340.810763587
 11
720.3008611726
 21
398.810763587
  0
ARC
  5
1D0
100
AcDbEntity
  8
SQUARE
  6
CONTINUOUS
 62
    7
370
   -1
100
AcDbCircle
 10
781.8008611726
 20
398.810763587
 40
3.500000000000003
100
AcDbArc
 50
0
 51
90
  0
ARC
  5
1D1
100
AcDbEntity
  8
SQUARE
  6
CONTINUOUS
 62
    7
370
   -1
100
AcDbCircle
 10
723.8008611726
 20
398.810763587
 40
3.499999999999918
100
AcDbArc
 50
90
 51
180
  0
LINE
  5
1D2
100
AcDbEntity
  8
SQUARE
  6
CONTINUOUS
 62
    7
370
   -1
100
AcDbLine
 10
723.8008611726
 20
402.310763587
 11
781.8008611726
 21
402.310763587
  0
ARC
  5
1D3
100
AcDbEntity
  8
SRCE
  6
CONTINUOUS
 62
    7
370
   -1
100
AcDbCircle
 10
249.6042146679
 20
96.5291440351
 40
3.500000000000048
100
AcDbArc
 50
80.08489275629999
 51
207.0341887231
  0
ARC
  5
1D4
100
AcDbEntity
  8
SRCE
  6
CONTINUOUS
 62
    7
370
   -1
100
AcDbCircle
 10
252.8758026127
 20
115.2453592593
 40
15.49999999999996
100
AcDbArc
 50
260.0848927563
 51
89.76706680869999
  0
ARC
  5
1D5
100
AcDbEntity
  8
SRCE
  6
CONTINUOUS
 62
    7
370
   -1
100
AcDbCircle
 10
232.6802407983
 20
87.8932243701
 40
15.49999999999999
100
AcDbArc
 50
197.3520146707
 51
27.0341887231
  0
LINE
  5
1D6
100
AcDbEntity
  8
SRCE
  6
CONTINUOUS
 62
    7
370
   -1
100
AcDbLine
 10
204.3540940015
 20
130.942751073
 11
252.9388169316
 21
130.7452311684
  0
LINE
  5
1D7
100
AcDbEntity
  8
SRCE
  6
CONTINUOUS
 62
    7
370
   -1
100
AcDbLine
 10
217.8856389614
 20
83.2704809759
 11
203.3955381205
 21
129.6445178277
  0
ARC
  5
1D8
100
AcDbEntity
  8
SRCE
  6
CONTINUOUS
 62
    7
370
   -1
100
AcDbCircle
 10
204.3500285616
 20
129.942759337
 40
1.000000000000062
100
AcDbArc
 50
89.76706680869999
 51
197.3520146707
  0
ARC
  5
1D9
100
AcDbEntity
  8
T
  6
CONTINUOUS
 62
    7
370
   -1
100
AcDbCircle
 10
480.3008611726
 20
427.810763587
 40
3.500000000000031
100
AcDbArc
 50
180
 51
270
  0
LINE
  5
1DA
100
AcDbEntity
  8
T
  6
CONTINUOUS
 62
    7
370
   -1
100
AcDbLine
 10
500.3008611726
 20
424.310763587
 11
480.3008611726
 21
424.310763587
  0
LINE
  5
1DB
100
AcDbEntity
  8
T
  6
CONTINUOUS
 62
    7
370
   -1
100
AcDbLine
 10
476.8008611726
 20
427.810763587
 11
476.8008611726
 21
449.810763587
  0
ARC
  5
1DC
100
AcDbEntity
  8
T
  6
CONTINUOUS
 62
    7
370
   -1
100
AcDbCircle
 10
500.3008611726
 20
417.810763587
 40
6.500000000000012
100
AcDbArc
 50
0
 51
90
  0
ARC
  5
1DD
100
AcDbEntity
  8
T
  6
CONTINUOUS
 62
    7
370
   -1
100
AcDbCircle
 10
480.3008611726
 20
449.810763587
 40
3.49999999999998
100
AcDbArc
 50
90
 51
180
  0
LINE
  5
1DE
100
AcDbEntity
  8
T
  6
CONTINUOUS
 62
    7
370
   -1
100
AcDbLine
 10
506.8008611726
 20
410.810763587
 11
506.8008611726
 21
417.810763587
  0
LINE
  5
1DF
100
AcDbEntity
  8
T
  6
CONTINUOUS
 62
    7
370
   -1
100
AcDbLine
 10
480.3008611726
 20
453.310763587
 11
500.3008611726
 21
453.310763587
  0
ARC
  5
1E0
100
AcDbEntity
  8
T
  6
CONTINUOUS
 62
    7
370
   -1
100
AcDbCircle
 10
510.3008611726
 20
410.810763587
 40
3.500000000000003
100
AcDbArc
 50
180
 51
270
  0
ARC
  5
1E1
100
AcDbEntity
  8
T
  6
CONTINUOUS
 62
    7
370
   -1
100
AcDbCircle
 10
500.3008611726
 20
459.810763587
 40
6.500000000000034
100
AcDbArc
 50
270
 51
0
  0
LINE
  5
1E2
100
AcDbEntity
  8
T
  6
CONTINUOUS
 62
    7
370
   -1
100
AcDbLine
 10
532.3008611726
 20
407.310763587
 11
510.3008611726
 21
407.310763587
  0
LINE
  5
1E3
100
AcDbEntity
  8
T
  6
CONTINUOUS
 62
    7
370
   -1
100
AcDbLine
 10
506.8008611726
 20
459.810763587
 11
506.8008611726
 21
466.810763587
  0
ARC
  5
1E4
100
AcDbEntity
  8
T
  6
CONTINUOUS
 62
    7
370
   -1
100
AcDbCircle
 10
532.3008611726
 20
410.810763587
 40
3.500000000000028
100
AcDbArc
 50
270
 51
0
  0
ARC
  5
1E5
100
AcDbEntity
  8
T
  6
CONTINUOUS
 62
    7
370
   -1
100
AcDbCircle
 10
510.3008611726
 20
466.810763587
 40
3.500000000000014
100
AcDbArc
 50
90
 51
180
  0
LINE
  5
1E6
100
AcDbEntity
  8
T
  6
CONTINUOUS
 62
    7
370
   -1
100
AcDbLine
 10
535.8008611726
 20
466.810763587
 11
535.8008611726
 21
410.810763587
  0
LINE
  5
1E7
100
AcDbEntity
  8
T
  6
CONTINUOUS
 62
    7
370
   -1
100
AcDbLine
 10
510.3008611726
 20
470.310763587
 11
532.3008611726
 21
470.310763587
  0
ARC
  5
1E8
100
AcDbEntity
  8
T
  6
CONTINUOUS
 62
    7
370
   -1
100
AcDbCircle
 10
532.3008611726
 20
466.810763587
 40
3.499999999999948
100
AcDbArc
 50
0
 51
90
  0
LINE
  5
1E9
100
AcDbEntity
  8
TRAPEZ
  6
CONTINUOUS
 62
    7
370
   -1
100
AcDbLine
 10
139.7998234085
 20
500.310763587
 11
106.8018987906
 21
500.310763587
  0
ARC
  5
1EA
100
AcDbEntity
  8
TRAPEZ
  6
CONTINUOUS
 62
    7
370
   -1
100
AcDbCircle
 10
106.8018987906
 20
503.810763587
 40
3.500000000000003
100
AcDbArc
 50
200
 51
270
  0
ARC
  5
1EB
100
AcDbEntity
  8
TRAPEZ
  6
CONTINUOUS
 62
    7
370
   -1
100
AcDbCircle
 10
139.7998234085
 20
503.810763587
 40
3.499999999999998
100
AcDbArc
 50
270
 51
340
  0
LINE
  5
1EC
100
AcDbEntity
  8
TRAPEZ
  6
CONTINUOUS
 62
    7
370
   -1
100
AcDbLine
 10
103.5129746179
 20
502.6136930854
 11
90.4100461843
 21
538.6136930854
  0
LINE
  5
1ED
100
AcDbEntity
  8
TRAPEZ
  6
CONTINUOUS
 62
    7
370
   -1
100
AcDbLine
 10
156.1916760149
 20
538.6136930854
 11
143.0887475813
 21
502.6136930854
  0
ARC
  5
1EE
100
AcDbEntity
  8
TRAPEZ
  6
CONTINUOUS
 62
    7
370
   -1
100
AcDbCircle
 10
93.69897035709999
 20
539.810763587
 40
3.500000000000016
100
AcDbArc
 50
90
 51
200
  0
ARC
  5
1EF
100
AcDbEntity
  8
TRAPEZ
  6
CONTINUOUS
 62
    7
370
   -1
100
AcDbCircle
 10
152.9027518421
 20
539.810763587
 40
3.500000000000003
100
AcDbArc
 50
340
 51
90
  0
LINE
  5
1F0
100
AcDbEntity
  8
TRAPEZ
  6
CONTINUOUS
 62
    7
370
   -1
100
AcDbLine
 10
93.69897035709999
 20
543.310763587
 11
152.9027518421
 21
543.310763587
  0
ARC
  5
1F1
100
AcDbEntity
  8
TRIANGLE_NORMAL
  6
CONTINUOUS
 62
    7
370
   -1
100
AcDbCircle
 10
154.3008610996
 20
459.810763587
 40
3.500000000000003
100
AcDbArc
 50
0
 51
90
  0
LINE
  5
1F2
100
AcDbEntity
  8
TRIANGLE_NORMAL
  6
CONTINUOUS
 62
    7
370
   -1
100
AcDbLine
 10
103.2667038999
 20
463.310763587
 11
154.3008610996
 21
463.310763587
  0
LINE
  5
1F3
100
AcDbEntity
  8
TRIANGLE_NORMAL
  6
CONTINUOUS
 62
    7
370
   -1
100
AcDbLine
 10
157.8008610996
 20
459.810763587
 11
157.8008610996
 21
424.3703766428
  0
ARC
  5
1F4
100
AcDbEntity
  8
TRIANGLE_NORMAL
  6
CONTINUOUS
 62
    7
370
   -1
100
AcDbCircle
 10
103.2667038999
 20
459.810763587
 40
3.500000000000024
100
AcDbArc
 50
90
 51
235.2221686336
  0
ARC
  5
1F5
100
AcDbEntity
  8
TRIANGLE_NORMAL
  6
CONTINUOUS
 62
    7
370
   -1
100
AcDbCircle
 10
154.3008610996
 20
424.3703766428
 40
3.499999999999964
100
AcDbArc
 50
235.2221686336
 51
0
  0
LINE
  5
1F6
100
AcDbEntity
  8
TRIANGLE_NORMAL
  6
CONTINUOUS
 62
    7
370
   -1
100
AcDbLine
 10
152.3044757664
 20
421.4955817629
 11
101.2703185667
 21
456.9359687072
  0
ARC
  5
1F7
100
AcDbEntity
  8
TRIANGLE
  6
CONTINUOUS
 62
    7
370
   -1
100
AcDbCircle
 10
758.6905886299
 20
449.810763587
 40
3.50000000000003
100
AcDbArc
 50
300
 51
59.99999999999999
  0
LINE
  5
1F8
100
AcDbEntity
  8
TRIANGLE
  6
CONTINUOUS
 62
    7
370
   -1
100
AcDbLine
 10
716.5508611726
 20
478.1815984624
 11
760.4405886299
 21
452.8418525003
  0
LINE
  5
1F9
100
AcDbEntity
  8
TRIANGLE
  6
CONTINUOUS
 62
    7
370
   -1
100
AcDbLine
 10
760.4405886299
 20
446.7796746738
 11
716.5508611726
 21
421.4399287116
  0
ARC
  5
1FA
100
AcDbEntity
  8
TRIANGLE
  6
CONTINUOUS
 62
    7
370
   -1
100
AcDbCircle
 10
714.8008611726
 20
475.1505095492
 40
3.500000000000042
100
AcDbArc
 50
59.99999999999999
 51
180
  0
ARC
  5
1FB
100
AcDbEntity
  8
TRIANGLE
  6
CONTINUOUS
 62
    7
370
   -1
100
AcDbCircle
 10
714.8008611726
 20
424.4710176249
 40
3.500000000000091
100
AcDbArc
 50
180
 51
300
  0
LINE
  5
1FC
100
AcDbEntity
  8
TRIANGLE
  6
CONTINUOUS
 62
    7
370
   -1
100
AcDbLine
 10
711.3008611726
 20
424.4710176249
 11
711.3008611726
 21
475.1505095492
  0
ARC
  5
1FD
100
AcDbEntity
  8
ZVEZDA
  6
CONTINUOUS
 62
    7
370
   -1
100
AcDbCircle
 10
224.3622877705
 20
189.8478038846
 40
6.499999999999245
100
AcDbArc
 50
151.8266534597
 51
207.2912572089
  0
LINE
  5
1FE
100
AcDbEntity
  8
ZVEZDA
  6
CONTINUOUS
 62
    7
370
   -1
100
AcDbLine
 10
218.5858209193
 20
186.8674631797
 11
224.9157899137
 21
174.5987799369
  0
LINE
  5
1FF
100
AcDbEntity
  8
ZVEZDA
  6
CONTINUOUS
 62
    7
370
   -1
100
AcDbLine
 10
225.1483204012
 20
205.082468853
 11
218.6323870817
 21
192.9167186923
  0
ARC
  5
200
100
AcDbEntity
  8
ZVEZDA
  6
CONTINUOUS
 62
    7
370
   -1
100
AcDbCircle
 10
221.8053846861
 20
172.9939810957
 40
3.50000000000078
100
AcDbArc
 50
259.8289557612
 51
27.2912572089
  0
ARC
  5
201
100
AcDbEntity
  8
ZVEZDA
  6
CONTINUOUS
 62
    7
370
   -1
100
AcDbCircle
 10
222.0629892611
 20
206.7349614418
 40
3.500000000000807
100
AcDbArc
 50
331.8266534597
 51
99.29125720890001
  0
LINE
  5
202
100
AcDbEntity
  8
ZVEZDA
  6
CONTINUOUS
 62
    7
370
   -1
100
AcDbLine
 10
221.187329026
 20
169.5489836791
 11
207.6008782555
 21
171.9864841426
  0
LINE
  5
203
100
AcDbEntity
  8
ZVEZDA
  6
CONTINUOUS
 62
    7
370
   -1
100
AcDbLine
 10
207.8741299433
 20
207.9601988812
 11
221.4979029406
 21
210.1890427162
  0
ARC
  5
204
100
AcDbEntity
  8
ZVEZDA
  6
CONTINUOUS
 62
    7
370
   -1
100
AcDbCircle
 10
206.4530606009
 20
165.5886317974
 40
6.499999999999201
100
AcDbArc
 50
79.82895576120001
 51
135.2935586566
  0
ARC
  5
205
100
AcDbEntity
  8
ZVEZDA
  6
CONTINUOUS
 62
    7
370
   -1
100
AcDbCircle
 10
206.8246839195
 20
214.374921248
 40
6.499999999999211
100
AcDbArc
 50
223.8266534597
 51
279.2912572089
  0
LINE
  5
206
100
AcDbEntity
  8
ZVEZDA
  6
CONTINUOUS
 62
    7
370
   -1
100
AcDbLine
 10
201.8333780537
 20
170.1612167515
 11
192.1237784688
 21
160.3516083587
  0
LINE
  5
207
100
AcDbEntity
  8
ZVEZDA
  6
CONTINUOUS
 62
    7
370
   -1
100
AcDbLine
 10
192.5792642256
 20
219.8295131227
 11
202.1353358048
 21
209.8738086901
  0
ARC
  5
208
100
AcDbEntity
  8
ZVEZDA
  6
CONTINUOUS
 62
    7
370
   -1
100
AcDbCircle
 10
189.6362570972
 20
162.8137694878
 40
3.500000000000774
100
AcDbArc
 50
187.8266534597
 51
315.2935586566
  0
ARC
  5
209
100
AcDbEntity
  8
ZVEZDA
  6
CONTINUOUS
 62
    7
370
   -1
100
AcDbCircle
 10
190.0542306253
 20
217.40583713
 40
3.500000000000766
100
AcDbArc
 50
43.8266534597
 51
171.2958609582
  0
LINE
  5
20A
100
AcDbEntity
  8
ZVEZDA
  6
CONTINUOUS
 62
    7
370
   -1
100
AcDbLine
 10
186.1688609984
 20
162.3371519326
 11
184.289583081
 21
176.0089121278
  0
LINE
  5
20B
100
AcDbEntity
  8
ZVEZDA
  6
CONTINUOUS
 62
    7
370
   -1
100
AcDbLine
 10
184.5061853778
 20
204.294630141
 11
186.5945402752
 21
217.93549993
  0
ARC
  5
20C
100
AcDbEntity
  8
ZVEZDA
  6
CONTINUOUS
 62
    7
370
   -1
100
AcDbCircle
 10
177.8501331832
 20
175.1237652395
 40
6.499999999999229
100
AcDbArc
 50
7.826653459699999
 51
63.29125720890001
  0
ARC
  5
20D
100
AcDbEntity
  8
ZVEZDA
  6
CONTINUOUS
 62
    7
370
   -1
100
AcDbCircle
 10
178.0810461562
 20
205.2782896266
 40
6.499999999999231
100
AcDbArc
 50
295.8312572089
 51
351.2958609582
  0
LINE
  5
20E
100
AcDbEntity
  8
ZVEZDA
  6
CONTINUOUS
 62
    7
370
   -1
100
AcDbLine
 10
180.77159272
 20
180.9302335443
 11
168.4387312145
 21
187.1353747714
  0
LINE
  5
20F
100
AcDbEntity
  8
ZVEZDA
  6
CONTINUOUS
 62
    7
370
   -1
100
AcDbLine
 10
168.4867971267
 20
193.4122188312
 11
180.9132404275
 21
199.4277618205
  0
ARC
  5
210
100
AcDbEntity
  8
ZVEZDA
  6
CONTINUOUS
 62
    7
370
   -1
100
AcDbCircle
 10
170.0118248113
 20
190.2619346279
 40
3.50000000000077
100
AcDbArc
 50
115.8312572089
 51
243.2912572089
  0
LINE
  5
211
100
AcDbEntity
  8
0BDLZ
  6
CONTINUOUS
 62
    7
370
   -1
100
AcDbLine
 10
365.0600061542
 20
413.5821018775
 11
406.072199463
 21
372.5699085686
  0
ARC
  5
212
100
AcDbEntity
  8
0BDLZ
  6
CONTINUOUS
 62
    7
370
   -1
100
AcDbCircle
 10
362.58513242
 20
411.1072281433
 40
3.499999999999956
100
AcDbArc
 50
45
 51
135
  0
ARC
  5
213
100
AcDbEntity
  8
0BDLZ
  6
CONTINUOUS
 62
    7
370
   -1
100
AcDbCircle
 10
403.5973257289
 20
370.0950348345
 40
3.500000000000001
100
AcDbArc
 50
315
 51
45
  0
LINE
  5
214
100
AcDbEntity
  8
0BDLZ
  6
CONTINUOUS
 62
    7
370
   -1
100
AcDbLine
 10
338.8970552503
 20
392.3688984419
 11
360.1102586859
 21
413.5821018775
  0
LINE
  5
215
100
AcDbEntity
  8
0BDLZ
  6
CONTINUOUS
 62
    7
370
   -1
100
AcDbLine
 10
406.072199463
 20
367.6201611003
 11
384.8589960274
 21
346.4069576647
  0
ARC
  5
216
100
AcDbEntity
  8
0BDLZ
  6
CONTINUOUS
 62
    7
370
   -1
100
AcDbCircle
 10
341.3719289844
 20
389.8940247077
 40
3.500000000000005
100
AcDbArc
 50
135
 51
225
  0
ARC
  5
217
100
AcDbEntity
  8
0BDLZ
  6
CONTINUOUS
 62
    7
370
   -1
100
AcDbCircle
 10
382.3841222933
 20
348.8818313989
 40
3.500000000000002
100
AcDbArc
 50
225
 51
315
  0
LINE
  5
218
100
AcDbEntity
  8
0BDLZ
  6
CONTINUOUS
 62
    7
370
   -1
100
AcDbLine
 10
379.9092485591
 20
346.4069576647
 11
338.8970552503
 21
387.4191509736
  0
SPLINE
  5
219
100
AcDbEntity
  8
ELIPSA_P
  6
CONTINUOUS
 62
    7
370
   -1
100
AcDbSpline
210
0
220
0
230
0
 70
   11
 71
    3
 72
   64
 73
   60
 74
    0
 42
1e-007
 43
1e-007
 40
0
 40
0
 40
0
 40
0
 40
0.03125
 40
0.03125
 40
0.0624999999999999
 40
0.0624999999999999
 40
0.0937499999999999
 40
0.0937499999999999
 40
0.1249999999999999
 40
0.1249999999999999
 40
0.1562499999999999
 40
0.1562499999999999
 40
0.1874999999999998
 40
0.1874999999999998
 40
0.2499999999999997
 40
0.2499999999999997
 40
0.2812499999999998
 40
0.2812499999999998
 40
0.3124999999999998
 40
0.3124999999999998
 40
0.3437499999999998
 40
0.3437499999999998
 40
0.3749999999999998
 40
0.3749999999999998
 40
0.4062499999999998
 40
0.4062499999999998
 40
0.4374999999999999
 40
0.4374999999999999
 40
0.4687499999999999
 40
0.4687499999999999
 40
0.4999999999999999
 40
0.4999999999999999
 40
0.5312499999999999
 40
0.5312499999999999
 40
0.5624999999999998
 40
0.5624999999999998
 40
0.5937499999999998
 40
0.5937499999999998
 40
0.6249999999999998
 40
0.6249999999999998
 40
0.6562499999999998
 40
0.6562499999999998
 40
0.6874999999999997
 40
0.6874999999999997
 40
0.7187499999999997
 40
0.7187499999999997
 40
0.7499999999999997
 40
0.7499999999999997
 40
0.8124999999999997
 40
0.8124999999999997
 40
0.8749999999999998
 40
0.8749999999999998
 40
0.9062499999999999
 40
0.9062499999999999
 40
0.9374999999999999
 40
0.9374999999999999
 40
0.96875
 40
0.96875
 40
1
 40
1
 40
1
 40
1
 10
220.2067676496288
 20
405.277917916252
 30
0
 10
221.8902395753141
 20
406.2498698005468
 30
0
 10
223.7341633707306
 20
406.8980139595999
 30
0
 10
227.5147892125143
 20
407.5616145950105
 30
0
 10
229.4732970047161
 20
407.5806610220334
 30
0
 10
233.2709127707342
 20
407.1199458873685
 30
0
 10
235.163084971015
 20
406.6363595421091
 30
0
 10
238.7557705468797
 20
405.3181785558286
 30
0
 10
240.472206327524
 20
404.4847274790035
 30
0
 10
243.7751247752222
 20
402.5342619495448
 30
0
 10
245.3554848986069
 20
401.4167522174779
 30
0
 10
248.3090444457029
 20
399.0074683051976
 30
0
 10
249.6964350185553
 20
397.707110941958
 30
0
 10
253.6196248908718
 20
393.5501439060452
 30
0
 10
255.9194722510657
 20
390.4257687149191
 30
0
 10
258.7733046292146
 20
385.4766093345887
 30
0
 10
259.6319803884378
 20
383.7740096267142
 30
0
 10
261.1564799537621
 20
380.2586826996853
 30
0
 10
261.8201967797768
 20
378.446639960621
 30
0
 10
262.9089466754335
 20
374.7920689406723
 30
0
 10
263.3390747143496
 20
372.9393498684252
 30
0
 10
263.9435401698938
 20
369.1769678049872
 30
0
 10
264.1183529350275
 20
367.2518581604073
 30
0
 10
264.1500549174461
 20
363.4122148411078
 30
0
 10
264.0100813670379
 20
361.5069375699952
 30
0
 10
263.346033581145
 20
357.7322343098797
 30
0
 10
262.8148569850867
 20
355.8566755567825
 30
0
 10
261.305484259405
 20
352.342031646947
 30
0
 10
260.3026990438087
 20
350.6565192059977
 30
0
 10
257.832145985992
 20
347.7278692408526
 30
0
 10
256.3300734780938
 20
346.4537882800831
 30
0
 10
253.0123935536398
 20
344.5496316621378
 30
0
 10
251.1582256764302
 20
343.8959293295186
 30
0
 10
247.3764601946647
 20
343.2369892226815
 30
0
 10
245.4150564666355
 20
343.2202453913011
 30
0
 10
241.6170445899895
 20
343.6854610165362
 30
0
 10
239.7458029646196
 20
344.1642141143683
 30
0
 10
236.1314660150602
 20
345.4927236990633
 30
0
 10
234.4168784389822
 20
346.32867160604
 30
0
 10
231.1330237530979
 20
348.2700671097081
 30
0
 10
229.553491133376
 20
349.3860697315453
 30
0
 10
226.5845618166119
 20
351.8097786164041
 30
0
 10
225.197048294081
 20
353.1128243503804
 30
0
 10
222.5905092194876
 20
355.8773939578855
 30
0
 10
221.3717365443873
 20
357.339155685015
 30
0
 10
219.0955355988298
 20
360.414438110576
 30
0
 10
218.0390312662528
 20
362.0297585563714
 30
0
 10
215.1820364368186
 20
366.9865662897978
 30
0
 10
213.6561095141322
 20
370.4711834501964
 30
0
 10
211.4552391109274
 20
377.8450369451498
 30
0
 10
210.8138710040312
 20
381.6045764213215
 30
0
 10
210.7623309894543
 20
387.3634017550805
 30
0
 10
210.9037661255835
 20
389.2922734718645
 30
0
 10
211.5646592783564
 20
393.0546223453648
 30
0
 10
212.092544325666
 20
394.9267559420612
 30
0
 10
213.6055053544399
 20
398.4545792195643
 30
0
 10
214.5942591350978
 20
400.1209919428255
 30
0
 10
217.075673252673
 20
403.0683676401918
 30
0
 10
218.5232957239434
 20
404.3059660319573
 30
0
 10
220.2067676496288
 20
405.277917916252
 30
0
  0
ENDBLK
  5
6D
330
6B
100
AcDbEntity
  8
0
100
AcDbBlockEnd
  0
ENDSEC
  0
SECTION
  2
ENTITIES
  0
INSERT
  5
21A
100
AcDbEntity
  8
DEFAULT
  6
ByLayer
 62
  256
370
   -1
100
AcDbBlockReference
  2
SE
 10
0
 20
0
 30
0
 41
1
 42
1
 43
0
 50
0
 70
    1
 71
    1
 44
0
 45
0
  0
MTEXT
  5
21B
100
AcDbEntity
  8
0
  6
ByLayer
 62
  256
370
   -1
100
AcDbMText
 10
305.8361561944917
 20
297.1431388349583
 30
0
 40
20
 41
479.047768888889
 71
    1
 72
    1
  1
WWW.CRAFTSMANSPACE.COM
  7
romanc
210
0
220
0
230
1
 50
0
 73
    2
 44
1
  0
ENDSEC
  0
SECTION
  2
OBJECTS
  0
DICTIONARY
  5
C
330
0
100
AcDbDictionary
281
    1
  3
ACAD_GROUP
350
D
  0
DICTIONARY
  5
D
330
C
100
AcDbDictionary
281
    1
  0
ENDSEC
  0
EOF
